Slayer - Point Chords & Tabs

 

Point Chords & Tabs

Slayer Chords & Tabs

Version: 1 Type: Tab 0 ratings
1 star 2 stars 3 stars 4 stars 5 stars
comments

Point Tab

point (solo)
album: diabolus in musica
slayer

tabbed by Rudy Guzman


SOLO 1
:--------------------------16---------17---------19------21~~~--|
:-21B~-21B~-21B~-21AH--/15----15--/16----16--/17----17----------|
:-21B~-21B~-21B~-21AH-------------------------------------------|
:---------------------------------------------------------------|
:---------------------------------------------------------------|
:---------------------------------------------------------------|


SOLO 2
:----------------------------------------------------------------------|
:----------------------------------------------------------14B~~-15B~~-|
:--------------------5P3P2-3P2P0---------11-11-11-10-10-10-------------|
:--------------------------------777-888-------------------------------|
:-5--555-666-999-888---------------------------------------------------|
:----------------------------------------------------------------------|

      --------     --------
:---------------------------*-14H17P14----*-------------------------|
:-15B-15-15-15-15B-15-15-15-*----------16-*-15B~~~---15-16-18-16-15-|
:---------------------------*-------------*-------------------------|
:---------------------------*-------------*-------------------------|
:---------------------------*-3-TIMES-----*-------------------------|
:---------------------------*-------------*-------------------------|



:----------------------------------------------------------------------|
:----------------------------------------------------------------------|
:-17-14-15-17----------------------------------------------------------|
:-------------17-14-17-14--------------------------------------14-15-17|
:-------------------------17-15-17-15-----------------14-15-17---------|
:-------------------------------------15-16--14-15-17------------------|


[ Tab from: http://www.guitartabs.cc/tabs/s/slayer/point_tab.html ]
:------------------------|
:------------------------|
:-14-17\-----------------|
:------------------------|
:------------------------|
:------------------------|


SOLO 3          BAR--------------------  BAR BAR--------------
:----------------------------------------------------------------------|
:----BEND-SLOW-----------------------------------0H2P0H2P0H2P0--2\-----|
:-5B----------------0H2P0H2P0H2P0H2P0-----0----------------------------|
:----------------------------------------------------------------------|
:----------------------------------------------------------------------|
:----------------------------------------------------------------------|


:-------------------------------------13-14-16-14-13-------------------|
:----------------------------13-14-16----------------16-14-13----------|
:-------------------13-14-16----------------------------------16-14-13-|
:----------14-15-17----------------------------------------------------|
:-14-15-17-------------------------------------------------------------|
:----------------------------------------------------------------------|

   BAR
:-----------13B-13B~~--13-14-13-14-16-14-13-----------13B~~--13-14-16--|
:-----------16B-16B~~-----------------------16-14-13--16B~~------------|
:--0-------------------------------------------------------------------|
:----------------------------------------------------------------------|
:----------------------------------------------------------------------|
:----------------------------------------------------------------------|

            BAR
:--------------------------------------------------------------------|
:-16-14-13-----------------------------------------------------------|
:-----------0--------------------------------------------------------|
:--------------------------------------------------------------------|
:--------------------------------------------------------------------|
:--------------------------------------------------------------------|
Comments