Slayer - Point Chords & Tabs

 

Point Chords & Tabs

Slayer Chords & Tabs

Version: 1 Type: Bass Tab 0 ratings
1 star 2 stars 3 stars 4 stars 5 stars
comments

Point Bass Tab

   
Band- Slayer
Song- Point

Drop Db-Tuning: Db,Ab,Db,Gb

          Fig. 1 Play (3x)
|--------||---------------------------------------------------------|
|--------||---------------------------------------------------------|
|--------||---------------------------------------------------------|
|--1--1--||--1-1-1-1-1-4-4-4-4-3-3-3-3-3-3-3-3-3-3-2-2-2-2-2-2-2-2--|

|-----------------------------------------------------------------------------|
|--------------------------------------------------------p--------------------|
|-------------------------------------------------------6-5--0--/9-8----------|
|--0-0-0-0-0-0-1-1-1-1-4-4-4-4-3-3-3-3-3-3-3-3-3-3-------------------9-8------|

Play Fig.1(1x)

|----------------------------------------------------------------------------|
|------------------------------------------------------------p-----p---------|
|-----------------------------------------------------------6-5-0-5-4-3-2----|
|--0-0-0-0-0-0-1-1-1-1-4-4-4-4-3-3-3-3-3-3-3-3-3-3---------------------------|

|-----------------|----------------|------------------------|---------------------|
|-----------------|----------------|------------------------|---------------------|
|-----------------|----------------|------------------------|---------------------|
|-------------4-1-|----------4-3-1-|-------------------4-1--|--------------4-3-1--|

|----------------------------|-----------------------------------|
|----------------------------|-----------------------------------|
|----------------------------|-----------------------------------|
|--0--0-0-8--0-0-6--0-0-4-1--|-0--0-0-7-0-0-6-0-0-4-3-1----------|

|--------------------------------|-----------------------------|
|--------------------------------|-----------------------------|
|----------5------4--------------|-----------------------------|
|--0--0-0----0-0----0-0-4-3-1----|-0--0-0-8--0-0-6------3-1----|

Riff A
I'm the one that brings you war...
|----------------------------|----------------------------|--------------------------||
|----------------------------|----------------------------|--------------------------||
|----------------------------|----------------------------|--------------------------||
|--0------1------2------3----|---0------1------2------3---|---0------1------2-----3--||

Point is where all die!!!!
|---------------------------|-----------------------------|---------------|
|---------------------------|-----------------------------|---------------|
|---------------------------|-----------------------------|---------------|
|--0------1-----------------|----4------------------------|-1-2-3--4-3----|
This beat follows the bass drum

play this piece while guitar plays solo
|------------------------------------------------------------------------|
|------------------------------------------------------------------------|
|------------------------------------------------------------------------|
|-0--0-0-0-0-0-0-0-0-0-0-1--0-0-0-0-0-0-0-0-0-0-2--0-0-0-0-0-0-0-0-0-0-3-|

|------------------------------------------------------------------------|
|------------------------------------------------------------------------|
|------------------------------------------------------------------------|
|-0-0-0-0-0-0-0-0-0-0--0--0-0-0-0-0-0-0-0-0-0-1--0-0-0-0-0-0-0-0-0-0-2---|
[ Tab from: http://www.guitartabs.cc/tabs/s/slayer/point_btab.html ]
|------------------------------|
|------------------------------|
|------------------------------|
|-0-0-0-0-0-0-0-0-0-0-4--3--1--|

Play Fig.2 w/lyrics
Fig.2
                                                 1,2,3         4  
|------------------------------------------------|-------------|-------------|
|------------------------------------------------|-------------|-------------|
|------------------------------------------------|-------------|-------------|
|-0--0-0-0-0-0-0-1--0-0-0-0-0-0-2--0-0-0-0-0-0-3-|-0-0-0-0-0-0-|-4-----3--1--|

Play Fig.3 (2x) w/lyrics
Fig.3
|-------------------------------------------|
|-------------------------------------------|
|-------------------------------------------|
|-0-0-0-0-0-0-3-3-3-3-3-3-2-0-0-0-0-0-2-0-6-|

|-------------------------------------------|
|-------------------------------------------|
|-------------------------------------------|
|-0-0-0-0-0-0-3-3-3-3-3-3-2-0-0-0-0-0-2-0-1-|

Play Fig.2 (1x) w/lyrics

Play Fig.3 (1x) w/lyrics 

Play Riff B (1x) w/lyrics
Riff B
|-------------------------------------------|---------------|
|-------------------------------------------|---------------|
|-------------------------------------------|---------------|
|-0-0-0-0-0-0-3-3-3-3-3-3-2-0-0-0-0-0-2-0-6-|-2----/6--5----|

Play this part 3x 
|------------------||---------------------------|
|------------------||---------------------------|
|------------------||----------p------9-8-------|
|----------------6-||----6----6-5--5-------9-8--|

Play Fig.4 (4x) w/lyrics
Fig.4
|--------------------------------------------------------------|
|--------------------------------------------------------------|
|--------------------------------------------------------------|
|-0-0-0-0-0-0-0-0-3\2-3/5-6\5-0-0-0-0-0-2-3-0-0-0-0-0-0-0-3-1--|

Play Riff C (3x) w/lyrics
Riff C
|-----------------------------||---------------------------|
|-----------------------------||----------p----------------|
|-----------------------------||---------6-5--0--9-8-------|
|-3-2-0-3-2-0-6-5-0-5-4-1-0-6-||-0-0-6----------------9-8--|

Play Fig.4 (4x) with lyrics

Play Riff C (4x) with lyrics

Play Fig.1 (4x) while guitar solos

Play Riff C (4x)

|---------------------------|
|----------p----------------|
|---------6-5--0--9-8-------|
|--0-0-6---------------9-8--|

Play Fig.5 while guitar solos
Fig.5
                                                      1,2,3
|-----------------------------------------------------|-------------------|
|-----------------------------------------------------|-------------------|
|-----------------------------------------------------|-------------------|
|-3-3-3-3-3-3-3-3-3-3-3-3-3-3-3-0-0-0-6-6-6-6-6-6-6-6-|-2-2-2-2-2-2-2-0-2-|

4
|-------------------|
|-------------------|
|-------------------|
|-2-2-2-2-2-2-2-3-2-|

Play Riff D (4x) with lyrics
Riff D
|-------------------------------------------------|
|-------------------------------------------------|
|-------------------------------------------------|
|-0-0-0-0-0-0-3-3-3-3-3-3-2-2-2-2-2-2-1-1-1-1-1-1-|

Riff A (1x)
|------------|-------------|-----------------------||
|------------|-------------|-----------------------||
|------------|-------------|-----------------------||
|-2----------|-------------|--0-0-6---0-0-6--5\----||
Comments