Slayer - Perversions Of Pain Chords & Tabs

 

Perversions Of Pain Chords & Tabs

Slayer Chords & Tabs

Version: 2 Type: Tab 0 ratings
1 star 2 stars 3 stars 4 stars 5 stars
comments

Perversions Of Pain Tab

Pervesions of pain
slayer
album: diabolus in musica
tabbed by Ruddy Guzman

      3 times                                    3 times
eb:|------------------|------------------------|-------------------------------|
Bb:|------------------|------------------------|-------------------------------|
Gb:|------------------|------------------------|-------------------------------|
Db:|-4----------------|--4---------------------|-------------------------------|
Ab:|-2------5--4--3---|--2------4--3---7-------|-2-----------------------------|
Eb:|--------3--2--1---|---------2--1---5-------|-0--0-0-0-3-0-0-0-2-0-0-0-1----|
                                                 pm. . . . . . . . . . . .

                        you better learn my name...
                       3 times
eb:------------------|-----------------------------|---------------------|
Bb:------------------|-----------------------------|---------------------|
Gb:------------------|-----------------------------|---------------------|
Db:-4----------------|-----------------------------|--4------------------|
Ab:-2----4--3--7-----|2----------------------------|--2---4--3--7--------|
Eb:------2--1--5-----|0--0-0-0-3-0-0-0-2-0-0-0-1---|------2--1--5--------|
                     pm . . . . . . . . . . . .

                                                      pervesions of pain....
eb:-----------------------------|---------------|---------------------------------|
Bb:-----------------------------|---------------|---------------------------------|
Gb:-----------------------------|---------------|-------------3------------------4|
Db:-----------------------------|-4-------------|--2-----2------2-------------3---|
Ab:2----------------------------|-2---4--3--7---|--2---2----------2--------2------|
Eb:0--0-0-0-3-0-0-0-2-0-0-0-1---|-----2--1--5---|--0-------------------0----------|
   pm. . . . . . . . . . . .


                     note: i think this part has a backing riff.

eb:-----------------|---------------------------------------------------|
Bb:--5--------------|-------------------------------------5-------------|
Gb:-----4-----------|-----------3------------------/4---------4---------|
Db:--------3--------|-2-----2-----2-------------3----------------3------|
Ab:-----------------|-2---2---------2--------2--------------------------|
Eb:-----------------|-0------------------0------------------------------|
    within my world of hate..
      3 times                                       3 times
eb:----------------------------|-----------------|---------------------------|
Bb:----------------------------|-----------------|---------------------------|
Gb:----------------------------|-----------------|---------------------------|
Db:----------------------------|--4--------------|---------------------------|
Ab:-2--------------------------|--2----4--3--7---|2--------------------------|
Eb:-0--0-0-0-3-0-0-0-2-0-0-0-1-|-------2--1--5---|0--0-0-0-3-0-0-0-2-0-0-0-1-|
  pm  . . . . . . . . . . .                       pm. . . . . . . . . . . .

                   perversinos of pain...
eb:---------------*---------------------------------------------|
Bb:---------------*-------------------------------------5-------|
Gb:---------------*-------------3-----------------4--------4----|
Db:-4-------------*--2-----2------2------------3--------------3-|
Ab:-2----4--3--7--*--2---2----------2-------2-------------------|
Eb:------2--1--5--*--0-------------------0----------------------|


eb:------------------------------------------|--------------------------------------------|
Bb:---------------------------------5--------|--------------------------------------------|
Gb:------------3--------------/4-------4-----|----------------------------------------2---|
Db:--2-----2-----2----------3-------------3--|----2-1-------3-2-------------5-4-----------|
Ab:--2---2---------2------2------------------|--------2---------3-2-1------------5-4------|
Eb:--0-----------------0---------------------|--0---------0-------------0-----------------|


eb:--------------------------------------------------------------------------|
Bb:--------------------------------------------------------------------------|
Gb:----------------------------------------2-----------------------------2---|
Db:---5-4------------4-3----------5-4------------5-4------------3-2----------|
Ab:--------5-4-3----------4-3---------5-4-------------5-4-3---------3-2------|
Eb:0--------------0------------0--------------0--------------0---------------|


eb:-----------------------------------------------------------|
Bb:-----------------------------------------------------------|
Gb:-----------------------------------------------------------|
Db:----------------------------------------------3-2----------|
Ab:--2-1--------3-2-------------3-2------5-----------3-2-1----|
Eb:------2---0-------3-2-1--0-------3-2------0----------------|


       3 times
eb:-----------------------------------------------------|-------------------------------------*
Bb:-----------------------------------------------------|-------------------------------------|
Gb:-----------------------------------------------------|-------------------------------------|
Db:-----------------------------------------------------|-------------------------------------|
Ab:2----------5-4---------4-3---------5-4---------6-5-4-|-2---------5-4---------4-3--------5-4|
Eb:0--0000000-3-2-0000000-2-1-0000000-3-2-0000000-4-3-2-|-0-0000000-3-2-0000000-2-1-000000-3-2|
   pm.......     .......     .......    ........          ........    .......     ......

[ Tab from: http://www.guitartabs.cc/tabs/s/slayer/perversions_of_pain_tab_ver_2.html ]
   solo
eb:----------------------------------------15-16-18-16-15------------------------------|
Bb:-----15--18b--18b~~~-----------15-16-18-----------------18-15-18b---18b~~~----------|
Gb:-/17------------------15-16-18------------------------------------------------------|
Db:------------------------------------------------------------------------------------|
Ab:------------------------------------------------------------------------------------|
Eb:------------------------------------------------------------------------------------|


eb:-----------------------------------------------------------------|
Bb:-15-18-15--------------------------------------------------------|
Gb:----------18-17-15-----------------------------------------------|
Db:-------------------18-17-15--------------------------------------|
Ab:-------------------------------15-15-15-14~~~--------------------|
Eb:------------------------------------------------17-17-17-16~~~---|


eb:------------------------------------------------------|
Bb:------------------------------------------------------|
Gb:-----------------13-16-15-13--------------------------|
Db:-----------------------------16-15-13-----------------|
Ab:-15-15-15-14~~~-----------------------16-15-13--------|
Eb:------------------------------------------------16-13-|


eb:---------------------------------------------------|
Bb:---------------------------------------------------|
Gb:---------------------------------------------------|
Db:---------------------------------------------------|
Ab:-15-15-15-14~~~------------------15-15-15-14~~~----|
Eb:-----------------17-17-17-16~~~--------------------|


eb:------------------------------16-16-15----19-19-18---21b---21b~~~--|
Bb:---------------------15-15-14--------------------------------------|
Gb:-----------14-14-13------------------------------------------------|
Db:-15-15-14----------------------------------------------------------|
Ab:-------------------------------------------------------------------|
Eb:-------------------------------------------------------------------|

    take a look into my mind....
eb:-------------------------------------------------------------------|
Bb:----------5----------6----------8----------6----------5----------4-|
Gb:-------4----------5----------7----------5----------4----------3----*
Db:----2----------3----------5----------3----------2----------1-------|
Ab:-2----------3----------5----------3----------2----------1----------|
Eb:-------------------------------------------------------------------|


  note: im not sure about this part
eb:----------------------------|
Bb:----------5---------5-------|
Gb:-------3---------4-----4----|
Db:----4---------3-------------|
Ab:-0--------------------------|
Eb:----------------------------*


eb:----------------------------------------------------------------------|
Bb:-------5-------6-------8-------6-------5-------4-------5-----5--------|
Gb:-----4-------5-------7-------5-------4-------3-------3-----4---4------|
Db:---2-------3-------5-------3-------2-------1-------4-----3------------|
Ab:-2-------3-------5-------3-------2-------1-------0--------------------|
Eb:----------------------------------------------------------------------|
                                   a higher level of pain...
                                  3 times
eb:------------------------------|---------------------------|
Bb:------------------------------|---------------------------|
Gb:------------------------------|---------------------------|
Db:--4--------------4------------|---------------------------|
Ab:--2---5--4--3----2----4--3--7-|2--------------------------|
Eb:------3--2--1---------2--1--5-|0-0-0-0-3-0-0-0-2-0-0-0-1--|
                                 pm. . . . . . . . . . . .

                    3 times
eb:--------------|---------------------------*-----------------|
Bb:--------------|---------------------------*-----------------|
Gb:--------------|---------------------------*-----------------|
Db:-4------------|---------------------------*--4--------------|
Ab:-2--4--3--7---|2--------------------------*--2----4--3--7---|
Eb:----2--1--5---|0--0-0-0-3-0-0-0-2-0-0-0-1-*-------2--1--5---|
                 pm . . . . . . . . . . . .


      perversions of pain....
eb:------------------------------------|-------------------------------------|
Bb:----------------------------5-------|------------------------------5------|
Gb:----------3------------4------4-----|----------3--------------/4------4---|
Db:-2----2-----2--------3----------3---|-2----2-----2---------3-------------3|
Ab:-2--2---------2----2----------------|-2--2---------2-----2----------------|
Eb:-0---------------0------------------|-0----------------0------------------|

                                        2 times
eb:-------------------------------|-------------------------------|
Bb:-------------------------------|-------------------------------|
Gb:---------------------------AH--|-------------------------------|
Db:---------------10-9--------8---|------------10-9----------8----|
Ab:------8-7-----------10-9-7-----|----8-7-----------10-9-7-------|
Eb:-0-0------0-0------------------|0-0-----0-0--------------------|


eb:------------------------------|-----------------------------|
Bb:------------------------------|-----------------------------|
Gb:------------------------------|-----------------------------|
Db:------------------------------|---------------10-9--------8-|
Ab:-----7-6-------------5-4--3-2-|------8-7-----------10-9-7---|
Eb:-0-0------0-0--7-6---3-2--1-0-|--0-0-----0-0----------------|


eb:-------------------------|
Bb:-------------------------|
Gb:-------------------------|
Db:-----7-6-----------------|
Ab:-------------7-6--5-4-3--|
Eb:-0-0-----0-0------3-2-1--|

fast part
   you better learn my name....
eb:-----3-times------------------------|
Bb:------------------------------------|
Gb:------------------------------------|
Db:------------------------------------|
Ab:-2------5------4------3-------------|
Eb:-0-0000-3-0000-2-0000-1-------------|
  pm ....   ....   ....



eb:----------------------------|-------------|
Bb:----------------------------|-------------|
Gb:----------------------------|-------------|
Db:----------------------------|-------------|
Ab:-2--------------------------|-5-4-3-------|
E:b-0-0000-3-0000-2-00000-1----|-3-2-1-------|
   pm....   ....   .....

sorry for not tab the backing riff of the solo and some other parts of
this song.
Comments