Slayer - Perversions Of Pain Chords & Tabs

 

Perversions Of Pain Chords & Tabs

Slayer Chords & Tabs

Version: 1 Type: Tab 0 ratings
1 star 2 stars 3 stars 4 stars 5 stars
comments

Perversions Of Pain Tab

Perversions Of Pain
Slayer
From the 1998 Album Diabolus in Musica
Transcribed By: Mike Bower
Tune Down ½ Step
*= Palm Muting
+= Harmonic
|-------------------------------------------|
|-------------------------------------------|
|-------------------------------------------|
|--4--------4--------4--------4-----0-------|
|--2-2-2-1--2-3-2-1--2-2-2-2--2-4-3-0-------|
|----3-2-1----3-2-1----3-2-1----2-1---------|

Rhy. Fig 1 (3x)
|-----------------------------------------------------|
|-----------------------------------------------------|
|-----------------------------------------------------|
|--4--------------------------------------------------|
|--2--------------------------------------------------|
|----0-0-0-0-3-0-0-0-0-0-2-0-0-0-0-0-1-0-0-0-0-0-0----|
     *------|  *--------|  *--------|  *----------|
|---------------------------|
|---------------------------|
|---------------------------|
|--4--------0---------------|
|--2--4--3--0---------------|
|-----2--1------------------|
Play Rhy. Fig 1 2x
|-----------------------------------|
|--------0--------------------------|
|------4-------3-----5--------9-----|
|----2-------2-----3---3----7---7---|
|-----------------------------------|
|--0-------0-----0-------0----------|

|-------------------------------------|
|--------0----------------------------|
|------4-------3-----5-----9---8------|
|----2-------2-----3---3-7---6--------|
|-------------------------------------|
|--0-------0-----0--------------------|
For this part of the song, I will show guitar 1 as
Playing the top note, and guitar 2 playing the bottom note.
|-----------------------------------------------|
|-----------------------------------------------|
|-----------------------------------------------|
|----2-1------3-2--------6-5-----8----5-4-------|
|----2-1-2----3-2-3-2----4-3-6-5-6----5-4-5-4---|
|--0-----2--0-----3-2--0-----4-3----0-----5-4---|

|--------------------------------------------------|
|--------------------------------------------------|
|--------------------------------------------------|
|----4-3------5-4-----7----4-3--------3-2-----5----|
|----2-1-4----3-2-5-4-5----4-3-4-3----5-4-3-2-7----|
|--0-----2--0-----3-2----0-----4-3--0-----5-4------|
[ Tab from: http://www.guitartabs.cc/tabs/s/slayer/perversions_of_pain_tab.html ]
|-------------------------------------------------|
|-------------------------------------------------|
|-------------------------------------------------|
|-------------------------------------3-2---------|
|----2-1------3-2--------4-3-----6----5-4-3-2-----|
|--0-----2--0-----3-2--0-----4-3----0-----5-4-----|
Rhy. Fig 2
|-------------------------------------------------------------|
|-------------------------------------------------------------|
|-------------------------------------------------------------|
|-------------------------------------------------------------|
|--2----------------5-4--------------4-3---------------4-3----|
|--0-00000000000000-3-2-000000000000-2-1-0000000000000-2-1----|
     *-------------|    *-----------|    *------------|
|-------------------------------------------------------------|
|-------------------------------------------------------------|
|-------------------------------------------------------------|
|-------------------------------------------------------------|
|----------6-5-4----------------5-4--------------4-3----------|
|-00000000-6-5-4-00000000000000-3-2-000000000000-2-1----------|
  *-------|      *-------------|    *-----------|
ok, you get the picture about this riff by now.
Play Rhy.Fig 2 under solo.
After solo:
|------0-------0-------0-------0-------0-------0--------|
|--------0-------0-------0-------0-------0-------0------|
|----4-------5-------8-------7-------4-------3----------|
|--2-------3-------6-------5-------2-------1------------|
|-------------------------------------------------------|
|-------------------------------------------------------|

|------0-------0---------0-------0-------0-------0--|
|--------0-------0-----0-------0-------0-------0----|
|--------------------4-------5-------7-------6------|
|----4-------3-----2-------3-------5-------4--------|
|--2-------1----------------------------------------|
|---------------------------------------------------|

|--------0-------0-------0-------0-------|
|------0-------0-------0-------0---------|
|----4-------3---------------------------|
|--2-------1---------4-------3-----------|
|------------------2-------1-------------|
|----------------------------------------|

|--------------------------------|
|--------------------------------|
|--------------------------------|
|--4------------4--------0-------|
|--2--2--2--1---2--2--3--0-------|
|-----3--2--1------4--1----------|
go back to rhy fig 2
|-------------------------------------------|
|-------------------------------------------|
|-----------------5---4---------3+----------|
|-------3---2-------------5-4---------------|
|-------------------------------------------|
|--0-0----0---0-0---0---0-----0-------------|
   * *    *   * *   *   *     *
play 3x, only use harmonic 1st time.
|------------------------------------|
|------------------------------------|
|------------------------------------|
|------2---1--------------------0----|
|----------------2---1---6-6--1-0----|
|--0-0---0---0-0---0---0-4-4--1------|
   * *   *   * *   *   *
|------------------------------------|
|------------------------------------|
|------------------------------------|
|------3---2-----5---4---------3-----|
|------------------------3-2---------|
|--0-0---0---0-0---0---0-----0-------|
   * *   *   * *   *   *     *
|---------------------------------------------|
|---------------------------------------------|
|------2---1----------------------------------|
|---------------------------------------------|
|----------------2---1---6-6--3-3-3-3---------|
|--0-0---0---0-0---0---0-4-4--1-1-1-1---------|
   * *   *   * *   *   *
Then play Rhy. Fig 2 until the end
If you would like to request any songs or anything, e-mail me at
guitargod8852@hotmail.com
Comments