Slayer - Payback Chords & Tabs

 

Payback Chords & Tabs

Slayer Chords & Tabs

Version: 1 Type: Bass Tab 0 ratings
1 star 2 stars 3 stars 4 stars 5 stars
comments

Payback Bass Tab

Intro:
G------------------------------------------------------|
D------------------------------------------------------|
A------------------------------------------------------|
E-(0)--------------------------------------------------|

G------------------------------------------------------|
D------------------------------------------------------|
A------------------------------------------------------|
E-0-------------1-------------2-------------2-3--0-1-1-|

G------------------------------------------------------|
D------------------------------------------------------|
A------------------------------------------------------|
E-0-0-0-0-0-0-0-1-0-0-0-0-0-0-2-0-0-0-0-0-0-2-3--0-1-1-|

G-------------------------------------------------------------------|
D-------------------------------------------------------------------|
A-------------------------------------------------------------------|
E-0000000-1-000000-2-0000002-3--0-1-1-2-3-0-1-1-2-3-0-1-1-0-1-5-(5)-|

Between Bridge & Verse:
G----------------------------|
D----------------------------|
A----------------------------|
E-3-2-0--3-2-0--3-2-0--3-2-0-|
[ Tab from: http://www.guitartabs.cc/tabs/s/slayer/payback_btab.html ]
Verse:
G----------------------------------------------------------------------|
D----------------------------------------------------------------------|
A----------------------------------------------------------------------|
E-0--0-0-0-0-0-0--4-4-4-4-4-4--0-0-0-0-0-0-0--4-4-4-4-4-4--3-3-3-3-3-3-|

G-------------------------------------------------------------------|
D-------------------------------------------------------------------|
A-------------------------------------------------------------------|
E-0-0-0-0-0-0-0--1-1-1-1-1-1-1--0-0-0-0-0-0--4-4-4-4-4-4--3-3-3-3-3-|

Between Bridge & Chorus:
G----------------------|
D----------------------|
A----------------------|
E-0-0-0-0-0--3-2-0-2-0-|

Chorus:
G-------------------------------------------|
D-------------------------------------------|
A----------------------1-1-1-1--0-0-0-0-0-0-|
E-0-0-0-0-0-0--3-3-3-3----------------------|

Verse 2:
G----------------------------------------------------|
D----------------------------------------------------|
A----------------------------------------------------|
E-0--0-0-0-0-0-0--1--0-0-0-0-0-0--2-0-2-0-4--3--0--2-|

G-------------------------------------------------------|
D-------------------------------------------------------|
A-------------------------------------------------------|
E-0--0-0-0-0-0-0--1--0-0-0-0-0-0-2-0-2-0-4--3--0--2-0h2-|

Ending:
G-----------------------------------------------|
D-----------------------------------------------|
A-----------------------------------------------|
E-2--4--0--2--4-0-0-0-0-0-0-0-0-0-2--4--0--2--4-|
Comments