Slayer - New Faith Chords & Tabs

 

New Faith Chords & Tabs

Slayer Chords & Tabs

Version: 2 Type: Tab

New Faith Tab

   
New Faith
artist: Slayer

tab by: Ben Healey

tuning: half step down Eb,G#,C#,F#,Bb,Eb

Key:
Palm mute= PM / ...
Tremelo= TP / ...
slide= / or \
hammer=h
pull off=p

  |-----------------------------|
  |-----------------------------|
  |-----------------------------|8x
  |-----------------------------|
  |------------------5-0-6-0-4--|
  |-0-0-0-0-0-0-0-0--3-0-4-0-2--|
PM  . . . . . . . .


  |-------------------------------------------|
  |-------------------------------------------|
  |-------------------------------------------|2x
  |-------------------------------------------|
  |-------------------------------------------|
  |-0-2-3-0-2-3-0-2-3-0-2-3-0-2-3-0-2-3-0-2-3-|


note: this part is so high on drums this what I think it is.
(modify at your own will)

  |-------------------------------------------|
  |-------------------------------------------|
  |-------------------------------------------|3x
  |-------------------------------------------|
  |-----3-----4-----5-----3-----4-----5-4\3/5-|
  |-000-1-000-2-000-3-000-1-000-2-000-3-2\1/3-|

note: same here
  |-------------------------------------------|
  |-------------------------------------------|
  |-------------------------------------------|1x
  |-------------------------------------------|
  |-----3-----4-----5-----3-----4-----5-444\3-|
  |-000-1-000-2-000-3-000-1-000-2-000-3-222\1-|


  |-----------------------------|
  |-----------------------------|
  |-----------------------------|4x
  |-----------------------------|
  |------------------5-0-6-0-4--|
  |-0-0-0-0-0-0-0-0--3-0-4-0-2--|
PM  . . . . . . . .


  |-------------------------------------------|
  |-------------------------------------------|
  |-------------------------------------------|2x
  |-------------------------------------------|
  |-------------------------------------------|
  |-0-2-3-0-2-3-0-2-3-0-2-3-0-2-3-0-2-3-0-2-3-|


  |-------------------------------------------|
  |-------------------------------------------|
  |-------------------------------------------|3x
  |-------------------------------------------|
  |-----3-----4-----5-----3-----4-----5-4\3/5-|
  |-000-1-000-2-000-3-000-1-000-2-000-3-2\1/3-|


neet pause as Tom Araya sings and one of the neetest solos
ever which be way hard for me to tab. Then it just wouldn't
be Slayer without tremelo picking now would it.
[ Tab from: http://www.guitartabs.cc/tabs/s/slayer/new_faith_tab_ver_2.html ]
  |----------------------------------|  |-------------|
  |----------------------------------|  |-------------|
  |----------------------------------|2x|-------------|
  |----------------------------------|  |-------------|
  |-------3------3h6------3------3h6-|  |---------5-3-|
  |-0000003000000---0000003000000----|  |-0-0-0-0-3-1-|
TP  ...... ......   ...... ......

  |----------------------------------|
  |----------------------------------|
  |----------------------------------|2x
  |----------------------------------|
  |-------3------3h6------3------3h6-|
  |-0000003000000---0000003000000----|
TP  ...... ......   ...... ......

  |-------------------------------------------------|
  |-------------------------------------------------|
  |-------------------------------------------------|
  |-------------------------------------------------|
  |-5-4----4-5-5-4----5-2-5-4----4-5-5-4----3-2-4-3-|
  |-3-2----2-3-3-2----3-0-3-2----2-3-3-2----1-0-2-1-|

once again a godlike solo

  |----------------------------------|  |-------------|
  |----------------------------------|  |-------------|
  |----------------------------------|2x|-------------|
  |----------------------------------|  |-------------|
  |-------3------3h6------3------3h6-|  |---------5-3-|
  |-0000003000000---0000003000000----|  |-0-0-0-0-3-1-|
TP  ...... ......   ...... ......

  |----------------------------------|
  |----------------------------------|
  |----------------------------------|2x
  |----------------------------------|
  |-------3------3h6------3------3h6-|
  |-0000003000000---0000003000000----|
TP  ...... ......   ...... ......

  |-------------------------------------------------|
  |-------------------------------------------------|
  |-------------------------------------------------|
  |-------------------------------------------------|
  |-5-4----4-5-5-4----5-2-5-4----4-5-5-4----3-2-4-3-|
  |-3-2----2-3-3-2----3-0-3-2----2-3-3-2----1-0-2-1-|

  |----------------|
  |----------------|
  |----------------|3x
  |----------------|
  |--------3-2-4-3-|
  |-000000-1-0-2-1-|
TP  ......

  |------------------|
  |------------------|
  |------------------|
  |------------------|
  |--------3-4-4-3-2-|
  |-000000-1-2-2-1-0-|
TP  ......

  |--------------------------------------------------------|
  |--------------------------------------------------------|
  |--------------------------------------------------------|2x
  |--------------3h4p3---------------3h4p3-----------3h4p3-|
  |-3-4-4-3-2-22-3h4p3--3-4-4-3-2-22-3h4p3-3-4-4-5-2-3h4p3-|
  |-3-4-4-3-2-22--------3-4-4-3-2-22-------3-4-4-5-2-------|


  |----------------------------|
  |----------------------------|
  |----------------------------|the end
  |--------------3h4p3---------|
  |-3-4-4-3-2-22-3h4p3-3-4-4-2-|
  |-3-4-4-3-2-22-------3-4-4-2-|