Slayer - Necrophobic Chords & Tabs

 

Necrophobic Chords & Tabs

Slayer Chords & Tabs

Version: 2 Type: Bass Tab

Necrophobic Bass Tab

   
Slayer - Necrophobic
Reign In Blood
1986

Tabbed by David - dlambert10@optonline.net

    E   E
Gb------------|
Db------------|
Ab--7---0-----|
Eb------------|


    E  E  E  E  E  E  E  E  E  E  E  E  E  E  E  E
Gb--------------------------------------------------|
Db--------------------------------------------------|
Ab--------------------------------------------------|
Eb--4--4--5--5--4--4--7--7--4--4--5--5--4--4--7--7--|

    E  E  E  E  E  E  E  E  E  E  E  E  E  E  E  E
Gb--------------------------------------------------|
Db--------------------------------------------------|
Ab--------------------------------------------------|
Eb--5--5--5--5--5--5--5--5--5--5--5--5--5--5--5--5--|

    E  E  E  E  E  E  E  E  E  E  E  E  E  E  E  E
Gb--------------------------------------------------|
Db--------------------------------------------------|
Ab--------------------------------------------------|
Eb--4--4--5--5--4--4--7--7--4--4--5--5--4--4--7--7--|

    E  E  E  E  E  E  E  E  E  E  E  E  E  E  E  E
Gb--------------------------------------------------|
Db--------------------------------------------------|
Ab--------------------------------------------------|
Eb--5--5--5--5--5--5--5--5--5--5--5--5--5--5--5--5--|

Gb--------------------------------------------------|
Db--------------------------------------------------|
Ab--------------------------------------------------|
Eb--3--3--2--2--3--3--1--1--3--3--2--2--3--3--1--1--|

    E  E  E  E  E  E  E  E  E  E  E  E  E  E  E  E
Gb--------------------------------------------------|
Db--------------------------------------------------|
Ab--------------------------------------------------|
Eb--5--5--5--5--5--5--5--5--5--5--5--5--5--5--5--5--|

    E  E  E  E  E  E  E  E  E  E  E  E  E  E  E  E
Gb--------------------------------------------------|
Db--------------------------------------------------|
Ab--------------------------------------------------|
Eb--4--4--5--5--4--4--7--7--4--4--5--5--4--4--7--7--|

    E  E  E  E  E  E  E  E  E  E  E  E  E  E  E  E
Gb--------------------------------------------------|
Db--------------------------------------------------|
Ab--------------------------------------------------|
Eb--5--5--5--5--5--5--5--5--5--5--5--5--5--5--5--5--|

    E  E  E  E  E  E  E  E  E  E  E  E  E  E  E  E
Gb--------------------------------------------------|
Db--------------------------------------------------|
Ab--------------------------------------------------|
Eb--4--4--5--5--4--4--7--7--4--4--5--5--4--4--7--7--|

    E  E  E  E  E  E  E  E  E  E  E  E  E  E  E  E
Gb--------------------------------------------------|
Db--------------------------------------------------|
Ab--------------------------------------------------|
Eb--5--5--5--5--5--5--5--5--5--5--5--5--5--5--5--5--|


    E  E  E  E  E  E  E  E  E  E  E  E  E  E  E  E
Gb--------------------------------------------------|
Db--------------------------------------------------|
Ab--------------------------------------------------|
Eb--3--3--2--2--3--3--1--1--3--3--2--2--3--3--1--1--|
[ Tab from: http://www.guitartabs.cc/tabs/s/slayer/necrophobic_btab_ver_2.html ]
    E  E S  E  E S  E  E S  E  E S  E  E S  E  E S  E  E S  E S
Gb-----------------------------------------------------------------|
Db-----------------------------------------------------------------|
Ab-----------------------------------------------------------------|
Eb--3--3-3--2--2-2--3--3-3--1--1-1--3--3-3--2--2-2--3--3-3--3-1~~~-|

    E  E  E  E  E  E  E  E  E  E  E  E  E  E  E  E
Gb--------------------------------------------------|
Db--------------------------------------------------|
Ab--------------------------------------------------|
Eb--3--3--3--3--3--3--4--4--3--3--3--3--3--3--4--4--|

    E  E  E  E  E  E  E  E  E  E  E  E  E  E  E  E
Gb--------------------------------------------------|
Db--------------------------------------------------|
Ab--------------------------------------------------|
Eb--3--3--3--3--3--3--4--4--3--3--3--3--3--3--4--4--|

    E  E  E  E  E  E  E  E  E  E  E  E  E  E  E  E
Gb--------------------------------------------------|
Db--------------2--2--2--2--------------------------|
Ab--1--1--1--1--------------------------3--3--3--3--|
Eb--------------------------2--2--2--2--------------|

    E  E  E  E  E  E  E  E  E  E  E  E
Gb-------------------------------------|
Db--------------2--2--2--2-------------|
Ab--1--1--1--1-------------------------|
Eb--------------------------2--2--2--2-|

    E  E  E  E  E  E  E  E  E  E  E  E  E  E  E  E  E  E  E  E
Gb-------------------------------------------------------------|
Db-------------------------------------------------------------|
Ab-------------------------------------------------------------|
Eb--5--5--5--5--5--5--5--5--5--5--5--5--5--5--5--5--5--5--5--5-|

    E  E  E  E  E  E  E  E  E  E  E  E  E  E  E  E  E  E  E  E
Gb-------------------------------------------------------------|
Db-------------------------------------------------------------|
Ab-------------------------------------------------------------|
Eb--5--5--5--5--5--5--5--5--5--5--5--5--5--5--5--5--5--5--5--5-|

    E  E  E  E  E  E  E  E  E  E  E  E  E  E  E  E
Gb--------------------------------------------------|
Db--------------------------------------------------|
Ab--------------------------------------------------|
Eb--5--5--5--5--8--8--8--8--7--7--7--7--6--6--6--6--|

    E  E  E  E  E  E  E  E  E  E  E  E  E  E  E  E
Gb--------------------------------------------------|
Db--------------------------------------------------|
Ab--------------------------------------------------|
Eb--5--5--5--5--8--8--8--8--7--7--7--7--6--6--6--6--|

    E  E  E  E  E  E  E  E  E  E  E  E  E  E  E  E
Gb--------------------------------------------------|
Db--------------------------------------------------|
Ab--------------------------------------------------|
Eb--5--5--5--5--8--8--8--8--7--7--7--7--6--6--6--6--|

    E  E  E  E  E  E  E  E  E  E  E  E
Gb-------------------------------------|
Db-------------------------------------|
Ab-------------------------------------|
Eb--5--5--5--5--8--8--8--8--7--7--7--7-|

    E  E S  E  E S  E  E S  E  E S  E  E S  E  E S  E  E S
Gb-----------------------------------------------------------|
Db-----------------------------------------------------------|
Ab-----------------------------------------------------------|
Eb--3--3-3--2--2-2--3--3-3--1--1-1--3--3-3--2--2-2--3--3-3-4-|


E = Eighth Note
S = Sixteenth Note
~ = Ring