Slayer - Mind Control Chords & Tabs

 

Mind Control Chords & Tabs

Slayer Chords & Tabs

Version: 1 Type: Bass Tab 0 ratings
1 star 2 stars 3 stars 4 stars 5 stars
comments

Mind Control Bass Tab

Band- Slayer
Song- Mind Control

Intro:
|--------------------------------|
|--------------------------------|
|-----------6p(5)-----------5-4--|
|-33333333---------3333333-------|

Verse:
|-----------------------------------------------------------------|
|-----------------------------------------------------------------|
|-----------10p7-------------9p7------------8p7-------------------|
|-0-000000---------0-000000--------0-000000-------0-000000--3-2-0-|
[ Tab from: http://www.guitartabs.cc/tabs/s/slayer/mind_control_btab.html ]
Solo:
|----------------------------------------------10-9~-|
|----------------7-6---10-9---------------7-6--------|
|----7-6---10-9----------------7-6---10-9------------|
|-0--------------------------------------------------|

After The Solo:
|--------------------------|
|------------2-1----10-9~--|
|--2-1---5-4---------------|
|--------------------------|

Verse 2:
|------------------------------------------|
|------------------------------------------|
|------------------------------------------|
|-33333--7--33333--6--33333--5--33333-4444-|
Comments