Slayer - Metal Storm Chords & Tabs

 

Metal Storm Chords & Tabs

Slayer Chords & Tabs

Version: 1 Type: Tab 0 ratings
1 star 2 stars 3 stars 4 stars 5 stars
comments

Metal Storm Tab

   
Slayer
Metal Storm/Face the Slayer
Show No Mercy
Transcribed by Rale and Adam, Written by Adam


Note: Palm Mute wherever you feel it necessary. I don't have every place marked.


Intro x 2

e|------------------------------------------------------------------|
B|------------------------------------------------------------------|
G|------------------------------------------------------------------|
D|---2-2-2-2--2-9---4-5--5--7------2-2-2-2--2-9---4-5--5--12-11-----|
A|---2-2-2-2--2-7---2-3--3--5-7----2-2-2-2--2-7---2-3--3--10-9------|
E|---0-0-0-0--0---------------5----0-0-0-0--0-----------------------|
     
Intro Solo x 25 I think
e|------------------------------------------------------------------|
B|------------------------------------------------------------------|
G|------2-3---2-----------------------2-----------------------------|
D|----5-----5---3-5-2-3---2-----2-3-----3---------------------------|
A|----------------------5---3-5-----5-------------------------------|
E|------------------------------------------------------------------|

Play this over intro solo
e|------------------------------------------------------------------|
B|------------------------------------------------------------------|
G|------------------------------------------------------------------|
D|------------------------------------------------------------------|
A|---7-------7------7-------7--------5------7------7-----3-----5----|
E|---5-------5------5-------5--------3------5------5-----1-----3----|
                                    P.M.
Play this over intro solo
e|------------------------------------------------------------------|
B|------------------------------------------------------------------|
G|------------------------------------------------------------------|
D|------------------------------------------------------------------|
A|---7------7------3------5-------7------7------7-------------------|
E|---5------5------1------3-------5------5------5-------------------|
                                
Riff 1 x 8                                       
e|------------------------------------------------------------------|
B|------------------------------------------------------------------|
G|------------------------------------------------------------------|
D|--2-2-2-2-2-2-2-2-2-----------------------------------------------|
A|--0-0-0-0-0-0-0-0-0-3---------------------------------------------|
E|------------------------------------------------------------------|
   P.M...............
Riff 2 x 2                    
e|------------------------------------------------------------------|
B|------------------------------------------------------------------|
G|------------------------------------------------------------------|
D|----7-7-7-7-7-7-10--9-----------------5---------------------------|
A|----5-5-5-5-5-5-8---7--5-5-5-5-5-5-7--3---------------------------|
E|-----------------------3-3-3-3-3-3-5------------------------------|

Riff 1 x 4                                       
e|------------------------------------------------------------------|
B|------------------------------------------------------------------|
G|------------------------------------------------------------------|
D|--2-2-2-2-2-2-2-2-2-----------------------------------------------|
A|--0-0-0-0-0-0-0-0-0-3---------------------------------------------|
E|------------------------------------------------------------------|
   P.M...............
Riff 2 x 2                    
e|------------------------------------------------------------------|
B|------------------------------------------------------------------|
G|------------------------------------------------------------------|
D|----7-7-7-7-7-7-10--9-----------------5---------------------------|
A|----5-5-5-5-5-5-8---7--5-5-5-5-5-5-7--3---------------------------|
E|-----------------------3-3-3-3-3-3-5------------------------------|

Riff 1 x 4                                       
e|------------------------------------------------------------------|
B|------------------------------------------------------------------|
G|------------------------------------------------------------------|
D|--2-2-2-2-2-2-2-2-2-----------------------------------------------|
A|--0-0-0-0-0-0-0-0-0-3---------------------------------------------|
E|------------------------------------------------------------------|
   P.M...............
Riff 3 x 4
e|------------------------------------------------------------------|
B|------------------------------------------------------------------|
G|------------------------------------------------------------------|
D|-9--9--9--9-10-7-9-5----------------------------------------------|
A|-7--7--7--7-8--5-7-3----------------------------------------------|
E|-0--0--0--0-------------------------------------------------------|

Riff 4 x 8
e|------------------------------------------------------------------|
B|------------------------------------------------------------------|
G|------------------------------------------------------------------|
D|------------------------------------------------------------------|
A|---------7-7-8-------7-7------------------------------------------|
E|---0-000-------0-000-----8-7--------------------------------------|

Fill 1

e|------------------------------------------------------------------|
B|------------------------------------------------------------------|
G|------------------------------------------------------------------|
D|--------(3)hold--------(3)hold------------------------------------|
A|--------(1)hold--------(1)hold------------------------------------|
E|--0-000-----------0-000-------------------------------------------|

Riff 4 x 2
e|------------------------------------------------------------------|
B|------------------------------------------------------------------|
G|------------------------------------------------------------------|
D|------------------------------------------------------------------|
A|---------7-7-8-------7-7------------------------------------------|
E|---0-000-------0-000-----8-7--------------------------------------|

Riff 5 x 8                     Play this after last time
e|-----------------------------|------------------------------------|
B|-----------------------------|------------------------------------|
G|-----------------------------|------------------------------------|
D|-----7----3------------------|------------------------------------|
A|-----5-00-1-0-0-0-0----------|-0-7-8-7----------------------------|
E|-----------------------------|---------8--------------------------|

Riff 4 x 4 
e|------------------------------------------------------------------|
B|------------------------------------------------------------------|
G|------------------------------------------------------------------|
D|------------------------------------------------------------------|
A|---------7-7-8-------7-7------------------------------------------|
E|---0-000-------0-000-----8-7--------------------------------------|
[ Tab from: http://www.guitartabs.cc/tabs/s/slayer/metal_storm_tab.html ]
Fill 1
e|------------------------------------------------------------------|
B|------------------------------------------------------------------|
G|------------------------------------------------------------------|
D|--------(3)hold--------(3)hold------------------------------------|
A|--------(1)hold--------(1)hold------------------------------------|
E|--0-000-----------0-000-------------------------------------------|

Riff 4 x 2 
e|------------------------------------------------------------------|
B|------------------------------------------------------------------|
G|------------------------------------------------------------------|
D|------------------------------------------------------------------|
A|---------7-7-8-------7-7------------------------------------------|
E|---0-000-------0-000-----8-7--------------------------------------|


Riff 5 x 12                    
e|------------------------------------------------------------------|
B|------------------------------------------------------------------|
G|------------------------------------------------------------------|
D|-----7----3-------------------------------------------------------|
A|-----5-00-1-0-0-0-0-----------------------------------------------|
E|------------------------------------------------------------------|

Riff 6 x 4
e|------------------------------------------------------------------|
B|------------------------------------------------------------------|
G|------------------------------------------------------------------|
D|----7-----10-----9------------------------------------------------|
A|----5------8-----7---10-7-----------------------------------------|
E|---------------------8--5-----------------------------------------|

Riff 7 x 3
e|------------------------------------------------------------------|
B|------------------------------------------------------------------|
G|------------------------------------------------------------------|
D|------------------------------------------------------------------|
A|----555555-888888-777777------------------------------------------|
E|-------------------------8--5-------------------------------------|
                          
Riff 7b
e|------------------------------------------------------------------|
B|------------------------------------------------------------------|
G|------------------------------------------------------------------|
D|------------------------------------------------------------------|
A|----555555-888888-777777---10-9-----------------------------------|
E|---------------------------8--7-----------------------------------|

Riff 8 x 4
e|------------------------------------------------------------------|
B|------------------------------------------------------------------|
G|------------------------------------------------------------------|
D|-------------------7----------------------------------------------|
A|--------2------7-----8-7------------------------------------------|
E|-2-3-0---3-0----8-7-----------------------------------------------|
  P.M..

Fill 2
e|------------------------------------------------------------------|
B|------------------------------------------------------------------|
G|------------------------------------------------------------------|
D|--------------0-------3--------------------0-------3--------------|
A|-2--3-2---2-3-----2---5---3---2--3-2---2-3-----2---5---3----------|
E|-0-----3----------0-------5---0------3---------0-------5----------|

Riff 9 x 4
e|------------------------------------------------------------------|
B|------------------------------------------------------------------|
G|------------------------------------------------------------------|
D|-------------------------12---------------------------------------|
A|-------------------------10-----------------13-12-----------------|
E|-10-12-0-10-12-0-10-12-0----10-12-0-10-12-0-------13-12-13-0------|

e|------------------------------------------------------------------|
B|------------------------------------------------------------------|
G|------------------------------------------------------------------|
D|-------------------------12-----------------5---------------------|
A|-------------------------10-----------------3-5-------------------|
E|-10-12-0-10-12-0-10-12-0----10-12-0-10-12-0---3-------------------|

Riff 10 x 2
e|------------------------------------------------------------------|
B|------------------------------------------------------------------|
G|------------------------------------------------------------------|
D|---4-4-4-4-4-4--7-6-----------------------------------------------|
A|---2-2-2-2-2-2--5-4--2-2-2-2-2-2--4-7-----------------------------|
E|---------------------0-0-0-0-0-0--2-5-----------------------------|

Riff 9 x 2
e|------------------------------------------------------------------|
B|------------------------------------------------------------------|
G|------------------------------------------------------------------|
D|-------------------------12---------------------------------------|
A|-------------------------10-----------------13-12-----------------|
E|-10-12-0-10-12-0-10-12-0----10-12-0-10-12-0-------13-12-13-0------|

e|------------------------------------------------------------------|
B|------------------------------------------------------------------|
G|------------------------------------------------------------------|
D|-------------------------12-----------------5---------------------|
A|-------------------------10-----------------3-5-------------------|
E|-10-12-0-10-12-0-10-12-0----10-12-0-10-12-0---3-------------------|

Riff 3 x 2
e|------------------------------------------------------------------|
B|------------------------------------------------------------------|
G|------------------------------------------------------------------|
D|-9--9--9--9-10-7-9-5----------------------------------------------|
A|-7--7--7--7-8--5-7-3----------------------------------------------|
E|-0--0--0--0-------------------------------------------------------|

Outro
e|------------------------------------------------------------------|
B|------------------------------------------------------------------|
G|------------------------------------------------------------------|
D|-------------------5-------------------8-------------------10-----|
A|-0-0-0-0-0-0-0-0-0-3-0-0-0-0-0-0-0-0-0-6-0-0-0-0-0-0-0-0-0-8------|
E|------------------------------------------------------------------|

e|------------------------------------------------------------------|
B|------------------------------------------------------------------|
G|------------------------------------------------------------------|
D|-------------------12-------------------5-------8-------10------12|
A|-0-0-0-0-0-0-0-0-0-10-0-0-0-0-0-0-0-0-0-3-0-0-0-6-0-0-0-8-0-0-0-10|
E|------------------------------------------------------------------|

e|------------------------------------------------------------------|
B|------------------------------------------------------------------|
G|--12-14-15-12-14----12-------------------------------------2------|
D|-----------------15----14-15-12-14----12-14-15-12-14-------2------|
A|-----------------------------------15----------------15-12-0------|
E|------------------------------------------------------------------|
Comments