Slayer - Metal Storm Face The Slayer Chords & Tabs

 

Metal Storm Face The Slayer Chords & Tabs

Slayer Chords & Tabs

Version: 1 Type: Tab 1 rating
1 star 2 stars 3 stars 4 stars 5 stars
comments

Metal Storm Face The Slayer Tab

   
 
Face the Slayer
Slayer
Metal Storm/Face the Slayer
Show No Mercy



--------------------------------------------------------------------------------
 
Fig. 1
|------------------------------------------------------------
|------------------------------------------------------------
|------------------9-----------4---5-------5-------7-------2-
|------------------9-----------4---5-------5-------7-------2-
|------------------7-----------2---3-------3-------5-------0-
|--0-0-0-0-0---0---------------------------------------------

|------------------------------------------------------------
|------------------------------------------------------------
|------------------9-----------4---5-------5-------12-----11-
|------------------9-----------4---5-------5-------12-----11-
|------------------7-----------2---3-------3-------10-----*9-
|--0-0-0-0-0---0---------------------------------------------


Fig. 2
[Gtr. 1]
|--------------------------------------------|
|--------------------------------------------|
|--------------------------------------------|
|--7------7-8----7---------------------------|
|----8-10-----10---8-10-7-8----7------7-8----|
|---------------------------10---8-10-----10-|

[Gtr. 2]
|--------------------------------------------------|
|--------------------------------------------------|
|--9-------9-10----9-------------------------------|
|----10-12------12---10-12-9-10----9-------9-10----|
|-------------------------------12---10-12------12-|
|--------------------------------------------------|

[power chords *root 6th string*]
A ... A ... A ... A ... G _    A ... A ... F ... G ...
A ... F ... G ... A ... A ... A .....


Fig. 3
|----------------------|-------------------------
|----------------------|-------------------------
|--------------------5-|-[----Power chords-------
|--7-----7-----7-----5-|-------------------------
|--0-0-0-0-0-0-0-0-0---|-D-D-D-D-D-D-F-----E-----
|----------------------|-------------------------

|--------------------------
|--------------------------
|------------------------]-
|--------------------------
|--------------------C-----
|--G-G-G-G-G-G-A-----------


Fig. 4
|----------------------------------------------------
|----------------------------------------------------
|--9-----9-----9-----9-----10-----7-----9-----5------
|--9-----9-----9-----9-----10-----7-----9-----5------
|--7-----7-----7-----7-----*8-----5-----7-----3------
|----0-0---0-0---0-0---0-0----0-0---0-0---0-0---0-0--


Fig. 5
|----------------------------------------------------
|----------------------------------------------------
|----------------------------------------------------
|----------------------------------------------------
|--------------7-------7---8-------------------7-----
|--0---0-0-0-------------------0---0---0-0-0---------

|------------||-----------------
|------------||-----------------
|------------||--------------3--
|------------||--------------3--
|--7---------||--------------1--
|------8---7-||--0---0-0-0------


Fig. 6
|--------------------------------------------------
|--------------------------------------------------
|--7-----------7-------------------7-----------10--
|--7-----------8-------------------7-----------*8--
|------0-0-0-------0-0-0-0-0-0-0-0-----0-0-0-------
|--------------------------------------------------

|------------------||----------------------------------
|------------------||----------------------------------
|------------------||--7-----------7-------------------
|------------------||--7-----------8-------------------
|--0-0-0-0-0-0-0-0-||------0-0-0-------0-0-0-0-0-0-0-0-
|------------------||----------------------------------

|---------------------------------
|---------------------------------
|--9------------------------------
|--7------------------------------
|------0-0-0-------7---8---7------
|--------------8---------------8--


Fig. 7 [solo]
|-------------------------------------------------
|-------------------------------------------------
|--7-----------5-------------------4-----------5--
|--7-----------5-------------------4-----------5--
|------0-0-0-------0-0-0-0-0-0-0-0-----0-0-0------
|-------------------------------------------------

|------------------||                   ||
|------------------||                   ||
|------------------|| [power chords]    ||
|------------------||                   ||
|--0-0-0-0-0-0-0-0-|| D---F---E---C---  || 
|------------------||                 A ||


Fig. 8
|----------------------------------------------------
|----------------------------------------------------
|----------------------------------------------------
|----------------------------------------------------
|--5-5-5-5-5-5-8-8-8-8-8-8-7-7-7-7-7-7---------------
|--------------------------------------8-8-8-5-5-5---

[ Tab from: http://www.guitartabs.cc/tabs/s/slayer/metal_storm_face_the_slayer_tab.html ]
Fig. 9
|--------------------------
|--------------------------
|--------------------2-----
|--------------2-------3-2-
|--------2-------3-0-------
|--0-2-3---3-0-------------


Fig. 10
|--------------||----------------------------------------
|--------------||----------------------------------------
|--------------||--------------------------5-------------
|---------2----||--------------2-----------5-----5-----2-
|---------2----||--3^2---2-3-5-2-----------3-----5-----2-
|--0-2-3--0----||------3-------0-----------------3-----0-


Fig. 11
|----------------------||--------------------------
|----------------------||--------------------------
|----------------------||--------------------------
|--------------------5-||--------------8^7---7-----
|--5^7---5^7---5^7---5-||--5^7---5^7-------8---8^7-
|------0-----0-----0---||------0-----0-------------


Fig. 12
|--
|--[power chords]
|--
|--
|--B-B-B-B-B-B-D-----C#----                  A-----
|--                        E-E-E-E-E-E-F#----



Fig. 13
|----------------------------------------------
|----------------------------------------------
|--------------------5-----------------------8-
|--7-----7-----7-----5-----7-----7-----7-----8-
|--0-0-0-0-0-0-0-0-0-------0-0-0-0-0-0-0-0-0---
|----------------------------------------------

|-----------------------------------------------
|-----------------------------------------------
|--------------------10----------------------12-
|--7-----7-----7-----10----7-----7-----7-----12-
|--0-0-0-0-0-0-0-0-0-------0-0-0-0-0-0-0-0-0----
|-----------------------------------------------

|------------------------------------------------------
|------------------------------------------------------
|--------------------5---------8---------10---------12-
|--7-----7-----7-----5---7-----8---7-----10---7-----12-
|--0-0-0-0-0-0-0-0-0-----0-0-0-----0-0-0------0-0-0----
|------------------------------------------------------


Fig. 14
[gtr. 1]
|-----------------------------------------------------------
|-----------------------------------------------------------
|--12-14-15-12-14----12-------------------------------------
|-----------------15----14-15-12-14----12-14-15-12-14-------
|-----------------------------------15----------------15-12-
|-----------------------------------------------------------

[gtr. 2]
|-----------------------------------------------------------
|-----------------------------------------------------------
|-----------------------------------------------------------
|--12-14-15-12-14----12-------------------------------------
|-----------------15----14-15-12-14----12-14-15-12-14----12-
|-----------------------------------15----------------15----




--------------------------------------------------------------------------------
metal storm/face the slayer (solo)

album: show no mercy

slayer


e:-18b-18b~~--18b-18b~~~-|
B:-----------------------|
G:-----------------------|
D:-----------------------|
A:-----------------------|
E:-----------------------|


e:15-15-17-15-18-15-17-18-15h16h18p16p15-15-17-18-17-15-16-18-17-15-etc-|
B:----------------------------------------------------------------------|
G:----------------------------------------------------------------------|
D:----------------------------------------------------------------------|
A:----------------------------------------------------------------------|
E:----------------------------------------------------------------------|



e:----------------------------------------------------------|
B:-18b-15-16-18---------------------------------------------|
G:--------------17-14-15-17----------------------17-14-15-17|
D:--------------------------17-14-15-17-14-15-17------------|
A:----------------------------------------------------------|
E:----------------------------------------------------------|


e:---------------15-16-18-18b-------------------------------------------|
B:15-16-15-16-18--------------------------------------------------------|
G:----------------------------------------------------------------------|
D:------------------------------7-7-7-7-9-9-9-9-10-10-10-10-12-12-12-12-|
A:----------------------------------------------------------------------|
E:----------------------------------------------------------------------|



e:-----------------------------------------------------------|
B:-----------------------------------------------------------|
G:-----------------------------------------------------14-16-|
D:---------9-9-9-9-10-10-10-12-12-12/14-14-15-15-17-17-------|
A:12-12-12---------------------------------------------------|
E:-----------------------------------------------------------|


  play 4 times       play 6 times
e:-14-14-15-14-17-|14-17-14-17--|
B:----------------|-------------|
G:----------------|-------------|
D:----------------|-------------|
A:----------------|-------------|
E:----------------|-------------|




e:18-21-18-21-18-21-18-22-18-21-----|
B:------------------------------21\-|
G:----------------------------------|
D:----------------------------------|
A:----------------------------------|
E:----------------------------------|
--------------------------------------------------------------------------------
  
Comments