Slayer - Mandatory Suicide Chords & Tabs

 

Mandatory Suicide Chords & Tabs

Slayer Chords & Tabs

Version: 5 Type: Tab 0 ratings
1 star 2 stars 3 stars 4 stars 5 stars
comments

Mandatory Suicide Tab

Name: Mandatory suicide
Album: South Of Heaven
By: Slayer
Tabbed By: Randy(Kreator143)
E-Mail: Metaldeth161@aol.com

~=vIBRATE STRING
/=SLIDE



Intro Repeat 8x
|-----------------------------|
|-----------------------------|
|----------------10-9~--------|
|----------9-8----------------|
|-5-4-3-2------7--------------|
|-3-2-1-0---------------------|

 2nd Riff Repeat 5x                    
|-----------------------------|   
|-----------------------------|   
|-----------------------------|  
|-5--3-2----------------------|   
|-5--3-2----------------------|   
|-3--1-0----------------------|   


3rd Riff Repeat 8x                  1x 
|-------------------------------------|----|
|-------------------------------------|----|
|-------------------------------------|----|
|---5---5-4-3---5---5-4-3---5---5-4-3-|-6-3|
|-0-3-0-3-2-1-0-3-0-3-2-1-0-3-0-3-2-1-|-4-1|
 

4th Riff when start singing Repeat 5x
|--------------------------------|
|--------------------------------|
|--------------------------------|
|--------------------------------|
|-------------------------5--3---|
|-0-0-0-0-0-0-0-0-0-0-0-0-3--1---|

 5th Riff Repeat 4x                        
|-----------------------------------------|
|-----------------------------------------|
|-----4-3-------4-3-------4-3-------4-3---|
|---------5~--------5~--------5~--------5~||
|-2-2--------2-2-------2-2------2-2-------|
|-0-0--------0-0-------0-0------0-0-------|


6th Riff Repeat 4x   1x
|--------------------|----|
|--------------------|----|
|--------------------|----|
|--------------------|----|
|--2-2-9--8----------|-6-3|
|--0-0-7--6-0-3/0----|-4-1|


 4th Riff Repeat 5x                                        
|--------------------------------|    
|--------------------------------|    
|--------------------------------|  
|--------------------------------|    
|-------------------------5--3---|    
|-0-0-0-0-0-0-0-0-0-0-0-0-3--1---|    
[ Tab from: http://www.guitartabs.cc/tabs/s/slayer/mandatory_suicide_tab_ver_5.html ]
3rd Riff Repeat 8x    1x
|------------------------------------|----|
|------------------------------------|----|
|------------------------------------|----|
|------------------------------------|----|
|---5---5-4-3---5---5-4-3---5---5-4-3|-6-3|
|-0-3-0-3-2-1-0-3-0-3-2-1-0-3-0-3-2-1|-4-1|

 Riff 1 Intro Repeat 4x
|---------------------------------|
|---------------------------------|
|----------------10-9~------------|
|----------9-8--------------------|
|-5-4-3-2------7------------------|
|-3-2-1-0-------------------------|

 Behind the solo 7th Riff Repeat 6x
|--------------------------------|
|--------------------------------|
|--------------------------------|
|--------------------------------|
|-2--2-2-2-3-3-5-5-3-3-3-3-3-3-3-|
|-0--0-0-0-1-1-3-3-1-1-1-1-1-1-1-|



  5th Riff Repeat 4x                             
|-------------------------------------------|  
|-------------------------------------------|   
|-----4-3-------4-3-------4-3--------4-3----|  
|---------5~--------5~--------5~---------5~-|   
|-2-2-------2-2-------2-2--------2-2--------| 
|-0-0-------0-0-------0-0--------0-0--------|  
                                                
 6th Riff  1x
|---------------|----|
|---------------|----|
|---------------|----|
|-2-2--9-8------|-6-1|
|-0-0--7-6--/3-0|-4-1|
 

4th Riff    Rereat 4x             
|-----------------------------| 
|-----------------------------|  
|-----------------------------|  
|-----------------------------|  
|-------------------------5--3|  
|-0-0-0-0-0-0-0-0-0-0-0-0-3--1|  

 3rd Riff Repeat 8 x
|----------------------------------------|
|----------------------------------------|
|----------------------------------------|
|----------------------------------------|
|---5---5-4-3---5---5-4-3---5---5-4-3----|
|-0-3-0-3-2-1-0-3-0-3-2-1-0-3-0-3-2-1----|

Last Riff 7th Riff Repeat 20x
|-------------------------------|
|-------------------------------|
|-------------------------------|
|-------------------------------|
|-2--2-2-2-3-3-5-5-3-3-3-3-3-3-3|
|-0--0-0-0-1-1-3-3-1-1-1-1-1-1-1|
Comments