Slayer - Mandatory Suicide Chords & Tabs

 

Mandatory Suicide Chords & Tabs

Slayer Chords & Tabs

Version: 3 Type: Tab 0 ratings
1 star 2 stars 3 stars 4 stars 5 stars
comments

Mandatory Suicide Tab

   
PM = Palm Mute


Tune down 1/2 step to Eb Ab Db Gb Bb Eb


Intro: 8x Guitar 1      Guitar 2
Eb|-----------------| |------------------|
Bb|-----------------| |------------------|
Gb|-----------------| |--9-8----10-9-----|
Db|-----------------| |------7-----------|
Ab|--5--4--3--2-----| |------------------|
Eb|--3--2--1--0-----| |------------------|

   4x
Eb|------------------------|
Bb|------------------------|
Gb|------------------------|
Db|------------------------|
Ab|--6--3-3--2-------------|
Eb|--4--1-1--0-------------|

    
Eb|------------------------|
Bb|------------------------|
Gb|------------------------|
Db|------------------------|
Ab|-----5-----4-----3------|
Eb|--0--3--0--2--0--1------|

 Murder at your every foot step...
Eb|------------------------|
Bb|------------------------|
Gb|------------------------|
Db|------------------------|
Ab|--6--3-3--2-2-2-2-2-2---|
Eb|--4--1-1--0-0-0-0-0-0---|
          PM|-----------|

     Burn!
Eb|------------------------|
Bb|------------------------|
Gb|------------------------|
Db|-----------9-8----------|
Ab|--2--2---------7--------|
Eb|--0--0------------------|


Eb|------------------------|
Bb|------------------------|
Gb|------------------------|
Db|------------------------|
Ab|--9--8--4/7-------------|
Eb|--7--6--2/5-------------|
[ Tab from: http://www.guitartabs.cc/tabs/s/slayer/mandatory_suicide_tab_ver_3.html ]
 Ambushed by the spray of lead...
Eb|------------------------|
Bb|------------------------|
Gb|------------------------|
Db|------------------------|
Ab|--6--3-3--2-2-2-2-2-2---|
Eb|--4--1-1--0-0-0-0-0-0---|
          PM|-----------|

  Suicide Suicide Suicide...
Eb|------------------------|
Bb|------------------------|
Gb|------------------------|
Db|------------------------|
Ab|-----5-----4-----3------|
Eb|--0--3--0--2--0--1------|


Eb|-----------------| |------------------|
Bb|-----------------| |------------------|
Gb|-----------------| |--9-8----10-9-----|
Db|-----------------| |------7-----------|
Ab|--5--4--3--2-----| |------------------|
Eb|--3--2--1--0-----| |------------------|



Solo


Eb|------------------------|
Bb|------------------------|
Gb|------------------------|
Db|-----------9-8----------|
Ab|--2--2---------7--------|
Eb|--0--0------------------|

Eb|------------------------|
Bb|------------------------|
Gb|------------------------|
Db|------------------------|
Ab|--9--8--4/7-------------|
Eb|--7--6--2/5-------------|


Holes burn deep in your chest...
Eb|------------------------|
Bb|------------------------|
Gb|------------------------|
Db|------------------------|
Ab|--6--3-3--2-2-2-2-2-2---|
Eb|--4--1-1--0-0-0-0-0-0---|
          PM|-----------|

  Suicide Suicide Suicide...
Eb|-------------------------|
Bb|-------------------------|
Gb|-------------------------|
Db|-------------------------|
Ab|-----5-----4-----3-----2-|
Eb|--0--3--0--2--0--1-----0-|


Outro:
  
Eb|------------------------|
Bb|------------------------|
Gb|------------------------|
Db|------------------------|
Ab|--2--3--5--3--2---------|
Eb|--0--1--3--1--0---------|
Comments