Slayer - Mandatory Suicide Chords & Tabs

 

Mandatory Suicide Chords & Tabs

Slayer Chords & Tabs

Version: 1 Type: Bass Tab 0 ratings
1 star 2 stars 3 stars 4 stars 5 stars
comments

Mandatory Suicide Bass Tab

   
**********************************************************************
This tab file was downloaded from THE ABYSS - the complete Slayer site                      http://www.slaytanic.com/
**********************************************************************

                   Mandatory Suicide - Slayer
                   ==========================

Tune down 1/2 step (Eb,Ab,Db,Gb)

 156 bpm
---------|-----------------|-----------------|-----------------|-----------------|
---------|-----------------|-----------------|-----------------|-----------------|
---------|-----------------|-----------------|-----------------|-----------------|
-3-2-1---|-0---------------|(0)-----3-2-1----|-0---------------|(0)------3-2-1---|

|-----------------|-----------------|-----------------|-----------------|
|-----------------|-----------------|-----------------|-----------------|
|-----------------|-----------------|-----------------|-----------------|
|-0---------------|(0)------3-2-1---|-0---------------|(0)------3-2-1---|

|-----------------|-----------------|-----------------|-----------------|
|-----------------|-----------------|-----------------|-----------------|
|-----------------|-----------------|-----------------|-----------------|
|-0-----0-0-----0-|-0-------3-2-1---|-0-----0-0-----0-|-0-------3-2-1---|

|-----------------|-----------------|-----------------|-----------------||
|-----------------|-----------------|-----------------|-----------------||
|-----------------|-----------------|-----------------|-----------------||
|-0-----0-0-----0-|-0-------3-2-1---|-0-----0-0-----0-|-0-------4-----1-||

|-----------------|-----------------|-----------------|-----------------|
|-----------------|-----------------|-----------------|-----------------|
|-----------------|-----------------|-----------------|-----------------|
|-0---------------|(0)------4-----1-|-0---------------|(0)------4-----1-|

|-----------------|-----------------|-----------------|-----------------|
|-----------------|-----------------|-----------------|-----------------|
|-----------------|-----------------|-----------------|-----------------|
|-0---------------|(0)------4-----1-|-0---------------|(0)------4-----1-|

 6/4
|-------------------------|-------------------------|
|-------------------------|-------------------------|
|-------------------------|-------------------------|
|-0-3-0-3-2-1-0-3-0-3-2-1-|-0-3-0-3-2-1-0-3-0-3-2-1-|

                                                    2/4
|-------------------------|-------------------------|---------||
|-------------------------|-------------------------|---------||
|-------------------------|-------------------------|---------||
|-0-3-0-3-2-1-0-3-0-3-2-1-|-0-3-0-3-2-1-0-3-0-3-2-1-|-4-----1-||

 verse 1
 4/4
|-----------------|-----------------|-----------------|-----------------|
|-----------------|-----------------|-----------------|-----------------|
|-----------------|-----------------|-----------------|-----------------|
|-0-0-0-0-0-0-0-0-|-0-0-0-0-4-----1-|-0-0-0-0-0-0-0-0-|-0-0-0-0-4-----1-|

|-----------------|-----------------|-----------------|-----------------||
|-----------------|-----------------|-----------------|-----------------||
|-----------------|-----------------|-----------------|-----------------||
|-0-0-0-0-0-0-0-0-|-0-0-0-0-4-----1-|-0-0-0-0-0-0-0-0-|-0-0-0-0-4-----1-||

|-----------------|-----------------|-----------------|-----------------|
|-----------------|-----------------|-----------------|-----------------|
|-----------------|-----------------|-----------------|-----------------|
|-0-0-------------|-0-0-------------|-0-0-------------|-0-0-------------|

|-----------------|-----------------|-----------------|-----------------||
|-----------------|-----------------|-----------------|-----------------||
|-----2---1----h--|-----2---1----h--|-----2---1----h--|-----2-----------||
|-0-0-------0-230-|-0-0-------0-230-|-0-0-------0-230-|-0-0-----4-----1-||

 verse 2
|-----------------|-----------------|-----------------|-----------------|
|-----------------|-----------------|-----------------|-----------------|
|-----------------|-----------------|-----------------|-----------------|
|-0-0-0-0-0-0-0-0-|-0-0-0-0-4-----1-|-0-0-0-0-0-0-0-0-|-0-0-0-0-4-----1-|

|-----------------|-----------------|-----------------|-----------------||
|-----------------|-----------------|-----------------|-----------------||
|-----------------|-----------------|-----------------|-----------------||
|-0-0-0-0-0-0-0-0-|-0-0-0-0-4-----1-|-0-0-0-0-0-0-0-0-|-0-0-0-0-4-----1-||

 6/4
|-------------------------|-------------------------|
|-------------------------|-------------------------|
|-------------------------|-------------------------|
|-0-3-0-3-2-1-0-3-0-3-2-1-|-0-3-0-3-2-1-0-3-0-3-2-1-|

|-------------------------|-------------------------||
|-------------------------|-------------------------||
|-------------------------|-------------------------||
|-0-3-0-3-2-1-0-3-0-3-2-1-|-0-3-0-3-2-1-0-3-0-3-2-1-||

 4/4
|-----------------|-----------------|-----------------|-----------------|
|-----------------|-----------------|-----------------|-----------------|
|-----------------|-----------------|-----------------|-----------------|
|-0---------------|(0)------3-2-1---|-0---------------|(0)------3-2-1---|

|-----------------|-----------------|-----------------|-----------------||
|-----------------|-----------------|-----------------|-----------------||
|-----------------|-----------------|-----------------|-----------------||
|-0-----0-0-----0-|-0-------3-2-1---|-0-----0-0-----0-|-0-------3-2-1---||
[ Tab from: http://www.guitartabs.cc/tabs/s/slayer/mandatory_suicide_btab.html ]
 guitar solo
|-----------------|-----------------|-----------------|-----------------|
|-----------------|-----------------|-----------------|-----------------|
|-----------------|-----------------|-----------------|-----------------|
|-0---0-0-0-1-0-3-|-0-1-0-0-0-0-0-0-|-0---0-0-0-1-0-3-|-0-1-0-0-0-0-0-0-|

|-----------------|-----------------|-----------------|-----------------|
|-----------------|-----------------|-----------------|-----------------|
|-----------------|-----------------|-----------------|-----------------|
|-0---0-0-0-1-0-3-|-0-1-0-0-0-0-0-0-|-0---0-0-0-1-0-3-|-0-1-0-0-0-0-0-0-|

|-----------------|-----------------|-----------------|-----------------||
|-----------------|-----------------|-----------------|-----------------||
|-----------------|-----------------|-----------------|-----------------||
|-0---0-0-0-1-0-3-|-0-1-0-0-0-0-0-0-|-0---0-0-0-1-0-3-|-0-1-0-0-0-0-0-0-||

|-----------------|-----------------|-----------------|-----------------|
|-----------------|-----------------|-----------------|-----------------|
|-----------------|-----------------|-----------------|-----------------|
|-0-0-------------|-0-0-------------|-0-0-------------|-0-0-------------|

|-----------------|-----------------|-----------------|-----------------||
|-----------------|-----------------|-----------------|-----------------||
|-----2---1----h--|-----2---1----h--|-----2---1----h--|-----2-----------||
|-0-0-------0-230-|-0-0-------0-230-|-0-0-------0-230-|-0-0-----4-----1-||

 verse 3
|-----------------|-----------------|-----------------|-----------------|
|-----------------|-----------------|-----------------|-----------------|
|-----------------|-----------------|-----------------|-----------------|
|-0-0-0-0-0-0-0-0-|-0-0-0-0-4-----1-|-0-0-0-0-0-0-0-0-|-0-0-0-0-4-----1-|

|-----------------|-----------------|-----------------|-----------------||
|-----------------|-----------------|-----------------|-----------------||
|-----------------|-----------------|-----------------|-----------------||
|-0-0-0-0-0-0-0-0-|-0-0-0-0-4-----1-|-0-0-0-0-0-0-0-0-|-0-0-0-0-4-----1-||

 6/4
|-------------------------|-------------------------|
|-------------------------|-------------------------|
|-------------------------|-------------------------|
|-0-3-0-3-2-1-0-3-0-3-2-1-|-0-3-0-3-2-1-0-3-0-3-2-1-|

|-------------------------|-------------------------||
|-------------------------|-------------------------||
|-------------------------|-------------------------||
|-0-3-0-3-2-1-0-3-0-3-2-1-|-0-3-0-3-2-1-0-3-0-3-2-1-||

 4/4               3/4           4/4
|-----------------|-------------|-----------------|-----------------||
|-----------------|-------------|-----------------|-----------------||
|-----------------|-------------|-----------------|-----------------||
|-0---------------|(0)----------|(0)--------------|(0)--------------||

|-----------------|-----------------|-----------------|-----------------|
|-----------------|-----------------|-----------------|-----------------|
|-----------------|-----------------|-----------------|-----------------|
|-0---0-0-0-1-0-3-|-0-1-0-0-0-0-0-0-|-0---0-0-0-1-0-3-|-0-1-0-0-0-0-0-0-|

|-----------------|-----------------|-----------------|-----------------||
|-----------------|-----------------|-----------------|-----------------||
|-----------------|-----------------|-----------------|-----------------||
|-0---0-0-0-1-0-3-|-0-1-0-0-0-0-0-0-|-0---0-0-0-1-0-3-|-0-1-0-0-0-0-0-0-||

|-----------------|-----------------|-----------------|-----------------|
|-----------------|-----------------|-----------------|-----------------|
|-----------------|-----------------|-----------------|-----------------|
|-0---0-0-0-1-0-3-|-0-1-0-0-0-0-0-0-|-0---0-0-0-1-0-3-|-0-1-0-0-0-0-0-0-|

|-----------------|-----------------|-----------------|-----------------|
|-----------------|-----------------|-----------------|-----------------|
|-----------------|-----------------|-----------------|-----------------|
|-0---0-0-0-1-0-3-|-0-1-0-0-0-0-0-0-|-0---0-0-0-1-0-3-|-0-1-0-0-0-0-0-0-|

|-----------------|-----------------|-----------------|-----------------|
|-----------------|-----------------|-----------------|-----------------|
|-----------------|-----------------|-----------------|-----------------|
|-0---0-0-0-1-0-3-|-0-1-0-0-0-0-0-0-|-0---0-0-0-1-0-3-|-0-1-0-0-0-0-0-0-|

|-----------------|-----------------|-----------------|-----------------|
|-----------------|-----------------|-----------------|-----------------|
|-----------------|-----------------|-----------------|-----------------|
|-0---0-0-0-1-0-3-|-0-1-0-0-0-0-0-0-|-0---0-0-0-1-0-3-|-0-1-0-0-0-0-0-0-|

|-----------------|-----------------|-----------------|-----------------|
|-----------------|-----------------|-----------------|-----------------|
|-----------------|-----------------|-----------------|-----------------|
|-0---0-0-0-1-0-3-|-0-1-0-0-0-0-0-0-|-0---0-0-0-1-0-3-|-0-1-0-0-0-0-0-0-|

|-----------------|-----------------|-----------------|-----------------|
|-----------------|-----------------|-----------------|-----------------|
|-----------------|-----------------|-----------------|-----------------|
|-0---0-0-0-1-0-3-|-0-1-0-0-0-0-0-0-|-0---0-0-0-1-0-3-|-0-1-0-0-0-0-0-0-|

|-----------------|-----------------|-----------------|-----------------|
|-----------------|-----------------|-----------------|-----------------|
|-----------------|-----------------|-----------------|-----------------|
|-0---0-0-0-1-0-3-|-0-1-0-0-0-0-0-0-|-0---0-0-0-1-0-3-|-0-1-0-0-0-0-0-0-|

|-----------------|-----------------|-----------------|-----------------|
|-----------------|-----------------|-----------------|-----------------|
|-----------------|-----------------|-----------------|-----------------|
|-0---0-0-0-1-0-3-|-0-1-0-0-0-0-0-0-|-0---0-0-0-1-0-3-|-0-1-0-0-0-0-0-0-|

|-----------------||
|-----------------||
|-----------------||
|-0---------------||


Comments