Slayer - Killing Fields Chords & Tabs

 

Killing Fields Chords & Tabs

Slayer Chords & Tabs

Version: 1 Type: Bass Tab 0 ratings
1 star 2 stars 3 stars 4 stars 5 stars
comments

Killing Fields Bass Tab

   
Band- Slayer
Song- Killing Fields

Drums            Intro
|---------------|---------------------------------------------------|
|---------------|---------------------------------------------------|
|---------------|---------------------------------------------------|
|---------------|--0---0----------------------(0)------------(0)----|

Riff A:
|----------------------------------------------|
|----------------------------------------------|
|----------------------------------------------|
|-0--0-0-0-0-00--1-0-0-0-0-0---4-0-0-0-0--0--3-|

|--------------------------------------------------|
|--------------------------------------------------|
|--------------------------------------------------|
|-0--0-0-0-0-00--1-0-0-0-0-0---4-0-0-0-0--0--3---4-|

Riff B:
|----------------------------------------------------------|
|----------------------------------------------------------|
|----------------------------------------------------------|
|-300200200100600300200--2--1--300200200100600300200--2--1-|

Riff C:
|----------------------------------|
|----------------------------------|
|----------------------------------|
|-0-0-0-0--0-1-1-1-0-2-2-2-0-3-3-3-|

|----------------------------------|
|----------------------------------|
|----------------------------------|
|-0-0-0-0--0-1-1-1-0-2-2-2-0-3---4-|

Riff D:
|-----------------------------------------|
|-----------------------------------------|
|-----------------------------------------|
|-0-0-0---0----0---0----0-0-0---0---0-0-0-|

Riff E:
|-------------------------------------------------------------------|
|-------------------------------------------------------------------|
|------------------------------------------------------------1------|
|-0-0-0--1--0-0-0---0-0-0--4--0-0-0--0-0-0--1--0-0-0---0-0-0--------|

|-------------------------------------------------------------------|
|-------------------------------------------------------------------|
|-------------------------------------------------------------------|
|-0-0-0--0-0-0--1-0-0-0--0-0-0-4-0-0-0--0-0-0-1-0-0-0--0-0-0--6--4--|
[ Tab from: http://www.guitartabs.cc/tabs/s/slayer/killing_fields_btab.html ]
Riff F:
|------------------------------------------------------------|
|------------------------------------------------------------|
|------------------------------------------------------------|
|--2------1--2--5----4-------------2-----1--2--5---4-----7-\-|

Riff G:
|--------------------------------------------------|
|--------------------------------------------------|
|--------------------------------------------------|
|-3---2-3--6---5--------3----2--3--6----5------8-\-|

Riff H:                                  Gradually accelerate picking
|-------------------------------------------------------------------|
|-------------------------------------------------------------------|
|-------------------------------------------------------------------|
|-2-2-2--2-2-2--2-2-2--2-2-2--2-2-2--2-2-2--2-2-2--2-2-2--2-2-2-----|

Riff I:
|---------------------------------------|
|---------------------------------------|
|---------------------------------------|
|-0-----------5----0-------------5----4-| 

Riff J:
|-------------------------------------------------------------------|
|-------------------------------------------------------------------|
|-------------------------------------------------------------------|
|-4-4-4--4-4-4-4--4-4-4--4-4-4-4--3-3-3--3-3-3-3-3-3---3-3-3-3------|

Riff K:
|-------------------------------------------------------------------|
|-------------------------------------------------------------------|
|-------------------------------------------------------------------|
|-0-0-0--0-0-0-0--0-0-0--0-0-0-0--0-0-0--0-0-0-0-0-0--0-0--0-0------|

|-------------------------------------------------------------------|
|-------------------------------------------------------------------|
|-------------------------------------------------------------------|
|-4--4--3----3-3-3-3-3-3-3--3-3-3-3-3-3---2-2-2-2-5-5-5--5-5-5-5----|

Riff L:
|-------------------------------------------------------------------|
|-------------------------------------------------------------------|
|-------------------------------------------------------------------|
|-1-1-1-1-1-1-1-1-1-1-1--0-0--1-4-4--4-4-44-3-3-3-3-3-3-3-3-3-3-3-3-|

|-------------------------------------------------------------------|
|-------------------------------------------------------------------|
|-------------------------------------------------------------------|
|-1-1-1-1-1-1-1-1-1-1-1--0-0-1-1-1-4-4-4-4-4--3-3-3-3-6-6-6-6-6-6---|
Comments