Slayer - Kill Again Chords & Tabs

 

Kill Again Chords & Tabs

Slayer Chords & Tabs

Version: 1 Type: Bass Tab 0 ratings
1 star 2 stars 3 stars 4 stars 5 stars
comments

Kill Again Bass Tab

   
Band- Slayer
Song- Kill Again

Intro riff
|-----------------------------------------------------|
|-----------------------------------------------------|
|--2---------3-2----------2--3-2----------------------|
|-----0--0--------0-0-0-0-----------------------------| x4

|----------------------------------------------------|
|----------------------------------------------------|
|--2-------3--------2--------------------------------|
|----0--0-----0--0------0-0----3-2-1-----------------| x4

|----------------------------------------------------|
|----------------------------------------------------|
|----------------------------------------------------|
|-0000-0000-0000-000-2-1-0000-0000-0000-000-1--------| x4

|-----------------------------------------------------|
|-----------------------------------------------------|
|---4444-5555-4444-7777-4444-5555--44444444-----------|
|-----------------------------------------------------| x3

|-----------------------------------------------------|
|-----------------------------------------------------|
|---4444-5555-4444-7777--2--1-------------------------|
|---------------------------------3--1----------------| x1

|-----------------------------------------------------|
|-----------------------------------------------------|
|-----------------------------------------------------|
|-1111-2222-1111-4444-1111-4444-1111------------------| x3

|-----------------------------------------------------|
|-----------------------------------------------------|
|-----------------------------------------------------|
|-1111-2222-1111-4444---------------------------------| x1

|----------------------------------------------------|
|----------------------------------------------------|
|----------------------------------------------------|
|-0000-0000-0000-000-2-1-0000-0000-0000-000-1--------| x4
[ Tab from: http://www.guitartabs.cc/tabs/s/slayer/kill_again_btab.html ]
Riff A
|----------------------------------------------------|
|---------------------------33-22--------------------|
|---44-55---------22-33------------------------------|
|----------33-44-------------------------------------| x4

|----------------------------------------------------|
|----------------------------------------------------|
|----------------------------------------------------|
|-0000-0000-0000-000-2-1-0000-0000-0000-000-1--------| x4

while guitars play verse riff:
|--------------------------------------------------|
|--------------------------------------------------|
|--------------------------------------------------|
|--1-0-0---------------0---(0)---------------------|

verse riff
|----------------------------------------------------|
|----------------------------------------------------|
|----7---8---7---8---8h10p8--7---8---7---8---6-------|
|-00--00--00--00--0--------00-00--00--00--00---------|

pre-chorus
|----------------------------------------------------|
|----------------------------------------------------|
|---------2222-111111-----------2222-111111----------|
|-22222222--------------22222222---------------------|

chorus
|---------------------------------------------------|
|---------------------------------------------------|
|-----1-2-1------454----1-2-1------------2-1--------|
|-0-0-------0-0------0-0-------3-2-0-2-3-----2------|

Pre-solo
|--------------------------------------------------|
|--------------------------------------------------|
|--5555-6666--9-8----5555-6666--1-6----------------|
|--------------------------------------------------|

solo
|--------------------------------------------------|
|--------------------------------------------------|
|--------------------------------------------------|
|--5555-6666--9-8----5555-6666--1-6----------------|

|-------------------------------------------------|
|-------------------------------------------------|
|-------------------------------------------------|
|--1111111--4444444--00000000--6666666------------|

Note: Riff A is also used behind the solo.
Comments