Slayer - In The Name Of God Chords & Tabs

 

In The Name Of God Chords & Tabs

Slayer Chords & Tabs

Version: 1 Type: Tab 0 ratings
1 star 2 stars 3 stars 4 stars 5 stars
comments

In The Name Of God Tab

Artist: Slayer
Album: Diabolus In Musica
Song: In The Name Of God
Tabbed By: Trevor Clements
Email: Punkaas@aol.com


[ Tab from: http://www.guitartabs.cc/tabs/s/slayer/in_the_name_of_god_tab.html ]
Intro/Verse
|------------------------------|--------------------|------------|
|------------------------------|--------------------|------------|
|------------------------------|--------------------|------------|
|------------------------------|--------------------|------------|
|-2-1-0--1-0-2-0-3-2-0-|-1-0-2-0-3-2-0-|-3-3-3-2-|
|-2-1-0--1-0-2-0-3-2-0-|-1-0-2-0-3-2-0-|-3-3-3-2-|this last

									  part 2x


Then you play the 4th fret barre chord for a while.


Then back to the verse.
|---------------|
|---------------|
|---------------|
|---------------|
|-0-3-1-0-0-|
|-0-3-1-0-0-|Play this for a while.



Then play the first part with some variations and put some

more space in between the chords.


|-----------------|
|-----------------|
|-----------------|
|-----------------|
|--33-33-44---|
|-0--0--0-------|



I'll do the slow part later today.
Comments