Slayer - In The Name Of God Chords & Tabs

 

In The Name Of God Chords & Tabs

Slayer Chords & Tabs

Version: 2 Type: Bass Tab 0 ratings
1 star 2 stars 3 stars 4 stars 5 stars
comments

In The Name Of God Bass Tab

In The Name Of God - Slayer
tabbed by: ryan b

Riff A: (once)
Ab---------------------------------------
C#--2-1-0--1-0-2-0-3-2-0--1-0-2-0-3-2-0--

Riff B: (twice)
Ab--------------------------------
C#--1-0-2-0-3-2-0--1-0-2-0-3-2-0--

Riff C: (once)
Ab---------------------
C#--1-0-2-0-3-3-3-2-0--

Riff A: (once)
Riff C: (once)
Riff A: (once)
Riff C: (once)
Riff A: (once)
Riff C: (once)
Riff A: (once)
Riff C: (once)

Riff D: (twice) "LIES!"
Ab----------------------------------------
C#--0---------------0-------0h1h2--0h1h2--

Riff E: (once)
Ab-------------------------------------------
C#--2p1-1-1-0--1-0-2p1-1-1-0--1-0-2p1-1-1-0--

Riff C: (once)
Riff E: (once)
Riff C: (once)
Riff A: (once)
Riff C: (once)
Riff A: (once)
Riff C: (once)
[ Tab from: http://www.guitartabs.cc/tabs/s/slayer/in_the_name_of_god_btab_ver_2.html ]
Riff A: (once)
Riff C: (once)
Riff A: (once)
Riff C: (once)
Riff D: (twice)

Riff F: (4 times)
Ab------------------------------------
C#--0-1-2--0-1-2-3--0-1-2-3--1-2-3-4--

Riff G: (4 times)
Ab---------------------------
C#--0h3---0h1--0h2--0h3p2p1--

Riff H: (twice)
Ab-----3-3-----3-3-----4-4-----4-3--
C#--0-------0-------0-------0-------

Riff G: (4 times)
Riff H: (twice)
Riff G: (4 times)
Riff H: (4 times)

Riff I: (once)
Ab-----------------------------
C#--0h3---0h1--0h2--0h3p2p1-0--

***rest for guitar (2:48 - 2:53)***

Riff J: (once)
Ab------------------
C#--0-1-2--0-1-2-3--

***rest for guitar***

Riff J: (once)

Riff K: (once)
Ab-------------------------------
C#--2---1-0--00-2-1-0--00-2-1-0--

Riff J: (once)
Riff K: (once)
Riff J: (once)
Riff K: (once)
Riff J: (once)
Riff K: (once)
Riff J: (once)
Comments