Slayer - Ice Titan Chords & Tabs

 

Ice Titan Chords & Tabs

Slayer Chords & Tabs

Version: 1 Type: Tab 0 ratings
1 star 2 stars 3 stars 4 stars 5 stars
comments

Ice Titan Tab

   
=================================================================================================
Song: Ice Titan
Artist: Slayer
Album: None (Unreleased)

Tabbed by Chris Rezendes (dudemcrude@yahoo.com)
Date started tab: 9/3/02
Date finished tab: 9/3/02

Tuning: Standard

Notation Key
v: vibrato
t: tremolo bar
^: bend
.: palm mute
~: trill
p: pull-off
h: hammer-on
x: ghost note
/: slide up
\: slide down

Comments:  Weird song.  Has some pretty neat riffs in it, though.  I wonder why they didn't put it on Show No Mercy.  Whatever.  Anyway, if you see a mistake, please point it out to me or send me the correction.  Later.
=================================================================================================

Riff 1 (This riff is played progressively faster and faster.  Gtr. 2 starts off playing the same thing as Gtr. 1 the first 4 times, but then starts playing one octave higher, which is what I tabbed below.  Guitar 2 plays just as fast as Gtr. 1, but I spaced the double-digit notes to avoid confusion.)
  Gtr. 1 x6
e|---------------------------|
B|---------------------------|
G|---------------------------|
D|--99999-77777--------------|
A|--------------88888-77777--|
E|---------------------------|

  Gtr. 2 x2
e|------------------------------------------------------|
B|--12-12-12-12-12-10-10-10-10-10-----------------------|
G|--------------------------------10-10-10-10-10-88888--|
D|------------------------------------------------------|
A|------------------------------------------------------|
E|------------------------------------------------------|

Fig. 1 x6
e|--------------------------------------------|
B|--------------------------------------------|
G|--------------------------------------------|
D|--------------------------------------3--5--|
A|--------------------------------------1--3--|
E|--1-0-0-3-0-0-1-0-0-3-0-0-1-0-0-3-0-0-------|
      . .   . .   . .   . .   . .   . . 

Fig. 2 x1 (chorus)
e|---------------------------------------|--------------------------------------|
B|---------------------------------------|--------------------------------------|
G|-------------------4-2---2-------------|-------------------4-2---2------------|
D|--------9-------9------2---2----10--5--|--------9-------9------2---2----5--7--|
A|--------7-------7------------3---8--3--|--------7-------7------------3--3--5--|
E|--0-0-0-0-0-0-0-0----------------------|--0-0-0-0-0-0-0-0---------------------|
    . . .   . . .                           . . .   . . .

e|---------------------------------------|--------------------------------------------|
B|---------------------------------------|--------------------------------------------|
G|-------------------4-2---2-------------|-------------------4-2---2------------------|
D|--------9-------9------2---2----10--5--|--------9-------9------2---2---2------------|
A|--------7-------7------------3---8--3--|--------7-------7------------3---3-2-3-2-0--|
E|--0-0-0-0-0-0-0-0----------------------|--0-0-0-0-0-0-0-0---------------------------|
    . . .   . . .                           . . .   . . .

Repeat Fig. 1 x6

Fig. 3 x4 (under solo)
e|-----|-----|-----|
B|-----|-----|-----|
G|--2--|--4--|--5--|
D|--2--|--4--|--5--|
A|--0--|--2--|--3--|
E|-----|-----|-----|
[ Tab from: http://www.guitartabs.cc/tabs/s/slayer/ice_titan_tab.html ]
Fig. 2B x1
e|---------------------------------------|--------------------------------------|
B|---------------------------------------|--------------------------------------|
G|-------------------4-2---2-------------|-------------------4-2---2------------|
D|--------9-------9------2---2----10--5--|--------9-------9------2---2----5--7--|
A|--------7-------7------------3---8--3--|--------7-------7------------3--3--5--|
E|--0-0-0-0-0-0-0-0----------------------|--0-0-0-0-0-0-0-0---------------------|
    . . .   . . .                           . . .   . . .

e|---------------------------------------|-----------------------------------------|
B|---------------------------------------|-----------------------------------------|
G|-------------------4-2---2-------------|-------------------4-2---2---------------|
D|--------9-------9------2---2----10--5--|--------9-------9------2---2-------------|
A|--------7-------7------------3---8--3--|--------7-------7------------3--3--5--2--|
E|--0-0-0-0-0-0-0-0----------------------|--0-0-0-0-0-0-0-0---------------1--3--0--|
    . . .   . . .                           . . .   . . .

Fig. 4 x8
e|-----------------|-----------------|----------------|-----------------|
B|-----------------|-----------------|----------------|-----------------|
G|--9---9---10--9--|--9---9--10--12--|--5---5---3--5--|---7---7---5--7--|
D|--9---9---10--9--|--9---9--10--12--|--5---5---3--5--|---7---7---5--7--|
A|--7---7----8--7--|--7---7---8--10--|--3---3---1--3--|---5---5---3--5--|
E|-----------------|-----------------|----------------|-----------------|

Riff 2 (Gtr. 2 comes in after Gtr. 1 plays 4 times.)
  Gtr. 1 x8
e|---------------|
B|---------------|
G|--4-2-4--------|
D|--------4-2----|
A|------------2--|
E|---------------|

  Gtr. 2 x4
e|--7-5-7--------|
B|--------7-5----|
G|------------4--|
D|---------------|
A|---------------|
E|---------------|

Fig. 5 x5
e|-------------------|--------------------|
B|-------------------|--------------------|
G|--9--12--10--9--7--|--9--12--9--12--14--|
D|--9--12--10--9--7--|--9--12--9--12--14--|
A|--7--10---8--7--5--|--7--10--7--10--12--|
E|-------------------|--------------------|

Fig. 6 x4 (Notice how similar this is to the chorus in "Crionics"?)
e|---------------------------|
B|---------------------------|
G|--9-----7-----5-----7------|
D|--9-----7-----5-----7------|
A|--7-777-5-555-3-333-5-555--|
E|---------------------------|

Fig. 6B x4 (under solo)
e|-----|-----|-----|-----|
B|-----|-----|-----|-----|
G|--9--|--7--|--5--|--7--|
D|--9--|--7--|--5--|--7--|
A|--7--|--5--|--3--|--5--|
E|-----|-----|-----|-----|

Fig. 7 x2
e|--------------------------|
B|--------------------------|
G|--------------------------|
D|--7---10--9-----5---7--9--|
A|--7---10--9-----5---7--9--|
E|--5----8--7-----3---5--7--|

Repeat Riff 1 x4 (It is modified a little bit.  Guitar 2 plays the same as Guitar 1 the first two times, then starts playing what I tabbed below.)
  Gtr. 1 x4
e|---------------------------|
B|---------------------------|
G|---------------------------|
D|--99999-77777--------------|
A|--------------88888-77777--|
E|---------------------------|

  Gtr. 2 x2
e|------------------------------------------------------|
B|--12-12-12-12-12-10-10-10-10-10-----------------------|
G|--------------------------------10-10-10-10-10-88888--|
D|------------------------------------------------------|
A|------------------------------------------------------|
E|------------------------------------------------------|

Repeat Fig. 1 x6
Repeat Fig. 2 x1

End x1
e|---------------------------|---------------------|---------------------------|----------------|
B|---------------------------|---------------------|---------------------------|----------------|
G|--4-2---2------------------|--5-4---4------------|---------------------------|----------------|
D|------3---3-2-3-2-0-2------|------5---5-2--3--5--|--99999-77777--------------|--9--9-------9--|
A|----------------------3-2--|---------------1--3--|--------------88888-77777--|--7--7--777--7--|
E|---------------------------|---------------------|---------------------------|----------------|
Comments