Slayer - Here Comes The Pain Chords & Tabs

 

Here Comes The Pain Chords & Tabs

Slayer Chords & Tabs

Version: 3 Type: Tab

Here Comes The Pain Tab

Here Comes the Pain
by,Slayer

tab by, Ben Healey

half step down tuning

key
slide-/or\
vibroto-~
palm mute-.


   |--------------------------------------------|
   |--------------------------------------------|after the drum pattern
   |--------------------------------------------|3 times go to next
   |--------------------------------------------|part
   |---5-4-5--2--------5-4-5--2-------5-4-5--2--|
   |---3-2-3--0--------3-2-3--0-------3-2-3--0--|


note:this is a weird part to memorize for some people
   |----------|after the pattern of the drums:
   |----------| first time:3 times
   |----------| second time:3 times
   |----------| fourth time:1 time
   |--5/4\5-2-| fifth time:1 time
   |--3/2\3-0-|


   |---------|
   |---------|
   |---------|
   |---------|
   |-5/4\5---|
   |-3/2\3---|


   |------------------|
   |------------------|
   |------------------|8x
   |------------------|
   |-----5-----4----3-|
   |-000-3-000-2-00-1-|
PM   ...   ...   ..


   |------------|
   |------------|
   |------------|4x
   |------------|
   |-2---5/4\5--|
   |-0---3/3\3--|


   |------------------------------|
   |------------------------------|
   |------------------------------|
   |------------------------------|
   |-------------------------5--2-|
   |-000-000-000-000-000-000-5--2-|


   |------------------------------|
   |------------------------------|
   |------------------------------|4x
   |------------------------------|
   |-------------------------2--5-|
   |-000-000-000-000-000-000-2--5-|


   |------------|
   |------------|
   |------------|3x
   |------------|
   |--3--3--2/4-|
   |--3--3--2/4-|

   |------------|
   |------------|
   |------------|
   |------------|
   |--3--3--4-2-|
   |--3--3--4-2-|


   |--------------------------------------------|
   |--------------------------------------------|
   |--------------------------------------------|
   |--------------------------------------------|
   |-5-4-2--4-5-2--4/54/5-2--5\4/54-2----5----4-|
   |-3-2-0--2-3-0--2/32/5-0--3\2/52-0-00-3-00-2-|



   |------------------------------|
   |------------------------------|
   |------------------------------|
   |------------------------------|
   |-------------------------5--2-|
   |-000-000-000-000-000-000-5--2-|


   |------------------------------|
   |------------------------------|
   |------------------------------|4x
   |------------------------------|
   |-------------------------2--5-|
   |-000-000-000-000-000-000-2--5-|

   |------------|
   |------------|
   |------------|3x
   |------------|
   |--3--3--2/4-|
   |--3--3--2/4-|

   |------------|
   |------------|
   |------------|
   |------------|
   |--3--3--4-2-|
   |--3--3--4-2-|
[ Tab from: http://www.guitartabs.cc/tabs/s/slayer/here_comes_the_pain_tab_ver_3.html ]
   |--------------------------------------------|
   |--------------------------------------------|
   |--------------------------------------------|2x
   |--------------------------------------------|
   |-5-4-2--4-5-2--4/54/5-2--5\4/54-2----5----4-|
   |-3-2-0--2-3-0--2/32/5-0--3\2/52-0-00-3-00-2-|

   |-----------|
   |-----------|
   |-----------|
   |-----------|4x
   |-5/4\5-2---|
   |-3/2\3-0---|

   |------------------|
   |------------------|
   |------------------|8x this part is under Kerry King's solo
   |------------------|
   |-----5-----4----3-|
   |-000-3-000-2-00-1-|
PM   ...   ...   ..

    guitar 1
   |----------------------------------|
   |----------------------------------|
   |----------------------------------|
   |----------------------3-----------|
   |----4--5--3-----4--5-----5--4--3~-|
   |-0-----------0--------------------|
   |                                  |
   |guitar 2                          |
   |----------------------------------|
   |----------------------------------|
   |----------------------------------|
   |----------------------------------|
   |-1--------------------------------|
   |-1--------------------------------|


    guitar 1
   |----------------------------------|
   |----------------------------------|
   |----------------------------------|
   |----------------------3-----------|
   |----4--5--3-----4--5-----5--4--3~-|
   |-0-----------0--------------------|
   |                                  |
   |guitar 2                          |2x
   |----------------------------------|
   |----------------------------------|
   |----------------------------------|
   |----------------------------------|
   |-1-----------1--------------------|
   |-1-----------1--------------------|


    guitar 1
   |----------------------------------|
   |----------------------------------|
   |----------------------------------|
   |----------------------3-----------|
   |----4--5--3-----4--5-----5--4--3~-|
   |-0-----------0--------------------|
   |                                  |
   |guitar 2                          |4x
   |----------------------------------|
   |----------------------------------|
   |----------------------------------|
   |----------------------------------|
   |-1-----------1-1-1----------------|
   |-1-----------1-1-1----------------|


   |-----|do this every 4 beats
   |-----|
   |-----|
   |-----|
   |--1--|
   |--1--|


   |------------------|under Jeff Hanneman's solo
   |------------------|
   |------------------|8x
   |------------------|
   |-----5-----4----3-|
   |-000-3-000-2-00-1-|
PM   ...   ...   ..


   |--------------------------------------------|
   |--------------------------------------------|after the drum pattern
   |--------------------------------------------|3 times go to next
   |--------------------------------------------|part
   |---5-4-5--2--------5-4-5--2-------5-4-5--2--|
   |---3-2-3--0--------3-2-3--0-------3-2-3--0--|


note:this is a weird part to memorize for some people
   |----------|after the pattern of the drums:
   |----------| first time:3 times
   |----------| second time:3 times
   |----------| fourth time:1 time
   |--5/4\5-2-| fifth time:1 time
   |--3/2\3-0-|


   |---------|
   |---------|
   |---------|
   |---------|the end
   |-5-4-5---|
   |-3-2-3---|