Slayer - Hell Awaits Chords & Tabs

 

Hell Awaits Chords & Tabs

Slayer Chords & Tabs

Version: 1 Type: Bass Tab 0 ratings
1 star 2 stars 3 stars 4 stars 5 stars
comments

Hell Awaits Bass Tab

**********************************************************************
This tab file was downloaded from THE ABYSS - the complete Slayer site                      http://www.slaytanic.com/
**********************************************************************

                    Hell Awaits - Slayer
                    ====================

tune down 1/2 step

109 bpm

                     13x
||--------------------||------------------|-------------------|
||o------------------o||------------------|-------------------|
||o------------------o||------------------|-------------8\78--|
||--0000000000000000--||-0000000000000000-|-000000000000------|
    1   2   3   4  etc.

|------------------|-------------------|------------------|------------------|
|------------------|-------------------|------------------|------------------|
|------------------|-------------------|------------------|---8---5----------|
|-0000000000000000-|-0000000000006\56--|-0000000000000000-|-00--00--005-6-3--|

|------------------|------------------|------------------|-------------------|
|------------------|------------------|------------------|-------------------|
|------------------|---------123-2----|------------------|-------------8\78--|
|-0000000000000000-|-00000000------1--|-0000000000000000-|-000000000000------|

|-------------------|------------------|------------------|------------------|
|-------------------|------------------|------------------|------------------|
|-------------------|---8---5----------|------------------|---------878-7----|
|-0000000000006\56--|-00--00--005-6-1--|-0000000000000000-|-00000000------6--|

 2/4       4/4                                    2x
|---------||-------------------|-------------------|||-------------------|
|---------||o------------------|------------------o|||o------------------|
|---------||o------------------|-----------1---1--o|||o-2-------3--------|
|-567-3-2-||--0---0---0---0----|-0---0---0---0-----|||----000000--000000-|

                   4x                     132 bpm
|-------------------||------------------||---------------|--------------|
|------------------o||-2-3--------------||---------------|--------------|
|-4-------4-3-2----o||-----2-5-4-3-2----||---------------|--------------|
|---000000------3---||---------------3--||-0-------------|--------------|

|------------------|------------------|------------------|------------------|
|------------------|------------------|------------------|------------------|
|-7----------------|-8----------------|-10---------------|-7---7---7---7----|
|------------------|------------------|------------------|------------------|

|------------------|------------------|------------------|------------------|
|------------------|------------------|------------------|------------------|
|-7---7---7---7----|-7---7---7---7----|-8---8---8---8----|-10--10--10--10---|
|------------------|------------------|------------------|------------------|

                       192 bpm
|--------------------||------------------|------------------|
|--------------------||------------------|------------------|
|-7-------3-2-3-5--5-||------------------|------------------|
|-----------------4--||------------------|------------------|
          { 3 } { 3 }

|------------------|------------------|------------------|------------------|
|------------------|------------------|------------------|------------------|
|------------------|------------------|------------------|------------------|
|------------------|------------------|-0----------------|(0)---------------|

|------------------|------------------||--------------------|
|------------------|------------------||o-------------------|
|------------------|------------------||o-5\4---------------|
|(0)---------------|(0)---------------||-----00000000000000-|

                                                            2x
|-------------------|-------------------|--------------------||
|-------------------|-------------------|-------------------o||
|-5\4----2\1--------|-5\4---------------|-5\4----8----------o||
|----0000----000000-|----00000000000000-|----0000------0000--||

 verse 1             8x  pre-chorus         |1.,2.,3.           |
||--------------------|||-------------------|-------------------||
||o------------------o|||o------------------|------------------o||
||o------------------o|||o------------------|-66665555---------o||
||--3333333333333333--|||--7777777777777777-|---------55558888--||
[ Tab from: http://www.guitartabs.cc/tabs/s/slayer/hell_awaits_btab.html ]
|4.                  chorus
|------------------||------------------|------------------|------------------|
|------------------||------------------|------------------|------------------|
|-66665555---------||------------------|------------------|------------------|
|---------55551----||------------------|------------------|------------------|

|------------------||--------------------|-------------------|
|------------------||o-------------------|-------------------|
|------------------||o-5\4---------------|-5\4----2\1--------|
|------------------||-----00000000000000-|----0000----000000-|

                                        2x  verse 2            8x
|-------------------|--------------------|||--------------------||
|-------------------|-------------------o|||o------------------o||
|-5\4---------------|-5\4----8----------o|||o------------------o||
|----00000000000000-|----0000------0000--|||--3333333333333333--||

  pre-chorus                            4x
||-------------------|-------------------||------------------|
||o------------------|------------------o||------------------|
||o------------------|-66665555---------o||-8-----7-8-----7--|
||--7777777777777777-|---------55558888--||---0000----0000---|

                                                             3x
|-------------------||-------------------|--------------------||
|-------------------||o------------------|-------------------o||
|-10-----7-6-----8--||o-7-----7-8-----7--|-10-----7-8-----8--o||
|----0000----0000---||----0000----0000---|----0000----0000----||

 bridge                                  4x  solo I             8x
||-------------------|--------------------|||--------------------||
||o------------------|-------------------o|||o------------------o||
||o-7-----7-8-----7--|-9-----7-10-----8--o|||o-4---7-6---7------o||
||----0000----0000---|---0000-----0000----|||--------------7-7---||

                     |1.-5.               |6.
||-------------------|-------------------||------------------||
||o------------------|------------------o||------------------||
||o------------------|-33332222---------o||-3---2------------||
||--4444444444444444-|---------22225555--||---------2---5----||

|------------------|------------------|------------------|------------------|
|------------------|------------------|------------------|------------------|
|------------------|------------------|------------------|------------------|
|-0----------------|------------------|------------------|------------------|

|-------------------|-------------------|-------------------|
|-------------------|-------------------|-------------------|
|-5\4---------------|-5\4----2\1--------|-5\4---------------|
|----00000000000000-|----0000----000000-|----00000000000000-|

                     verse 3             8x  pre-chorus
|-------------------||--------------------|||-------------------|
|-------------------||o------------------o|||o------------------|
|-5\4----8-----7\---||o------------------o|||o------------------|
|----0000-----------||--3333333333333333--|||--7777777777777777-|

|1.,2.,3.            |4.                 chorus
|-------------------||------------------||------------------|
|------------------o||------------------||------------------|
|-66665555---------o||-66665555---------||------------------|
|---------55558888--||---------55551----||-0----------------|

|------------------|------------------|------------------|
|------------------|------------------|------------------|
|------------------|------------------|------------------|
|------------------|------------------|------------------|

||--------------------|-------------------|-------------------|
||o-------------------|-------------------|-------------------|
||o-5\4---------------|-5\4----2\1--------|-5\4---------------|
||-----00000000000000-|----0000----000000-|----00000000000000-|

|1.                   |2.
|--------------------||-------------------||-------------------|
|-------------------o||-------------------||o------------------|
|-5\4----8----------o||-5\4----8-------6--||o-7-----7-9-----9--|
|----0000------0000--||----0000----8-7----||----0000----0000---|

                                           |1.,2.,3.
|--------------------|||-------------------|--------------------||
|-------------------o|||o------------------|-------------------o||
|-10-------------6--o|||o-7-----7-8-----8--|-9-----9-10-----6--o||
|----000000000000----|||----0000----0000---|---0000-----0000----||

|4.                   solo II            |1.-7.
|-------------------||-------------------|--------------------||
|-------------------||o------------------|-------------------o||
|-10-----9-8--------||o------------------|-3--2--3--5--------o||
|----0000----00003--||--2222222222222222-|--------------4-3---||
                                           {  3  }

|8.
|------------------|------------------|------------------||
|------------------|------------------|------------------||
|------------------|------------------|------------------||
|-2---2---2---2----|-3----------------|-2---\------------||

Comments