Slayer - Haunting The Chapel Chords & Tabs

 

Haunting The Chapel Chords & Tabs

Slayer Chords & Tabs

Version: 1 Type: Tab 0 ratings
1 star 2 stars 3 stars 4 stars 5 stars
comments

Haunting The Chapel Tab

   
HAUNTING THE CHAPEL (SLAYER/HAUNTING THE CHAPEL)by metalman

the 3 small strings are erease when useless
    riff a                                                                      
E---||-------------------------------------------|------------------------------
B---||-------------------------------------------|------------------------------
G---||*-------6-------5--------------------------|-------6-------5--------------
D---||*------/4------/3--------4--3--2--1--0-----|------/4------/3--------4-----
A---||----------------------------------------1--|------------------------------
E---||---0--0----0--0----0--0--------------------|--0--0----0--0----0--0--------
                                                                                
                x4   riff b                                                     
E----------------||--||---------------------------------------------------------
B----------------||--||---------------------------------------------------------
G------------4--*||--||*--------------------------------------------------------
D---3--2--0--2--*||--||*-----------------------------------------3--2-----------
A----------------||--||---5--4--3--2--------------5--4--3--2-----1--0-----5-----
E----------------||--||---3--2--1--0--0--0--0--0--3--2--1--0--0--------0--3-----
                                                                                
                                           x5   riff a x2         riff b x4     
D---------------------------------------3--*||-----------------|----------------
A---4--3--2--------------5--4--3--2-----1---||-----------------|----------------
E---2--1--0--0--0--0--0--3--2--1--0--0------||-----------------|----------------
                                                                                
          riff a x2                       riff c1                               
D------|--------------|--3--2--------||*----------------------------------------
A------|--------------|--1--0--5--4--||---------------------------3--2----------
E------|--------------|--------3--2--||---0--0--0--0--0--0--0--0--------0--0----
                                                                                
                                                                                
D-------------------------------------------------------------------------------
A------------------3--2--5--------------------------3--2------------------------
E---0--0--0--0--0-----------0--0--0--0--0--0--0--0--------0--0--0--0--0--0------
                                                                                
                   x3   riff c2                                                 
D---0--3--0--2--0--*||----------------------------------------------------------
A-------------------||--------------------------3--2-----------------------3----
E-------------------||--0--0--0--0--0--0--0--0--------0--0--0--0--0--0--0-------
                                                                                
                                                                                
D---------------------------------------------------------0--4--0--3--0--2------
A---2--5--------------------------3--2------------------------------------------
E---------0--0--0--0--0--0--0--0--------0--0--0--0--0--0------------------------
                                                                                
             riff d                                                             
D---0--1--0--||*--------------------------------------------------3-----3--5----
A------------||---0--0--0--0--0--0--0--0--0--0--0--0--0--0--0--0--1--0--1--3----
E------------||-----------------------------------------------------------------
                                                                                
           x3                                                                   
D---1h2p1--*||--------------------------------------------------3--2--1--0------
A-----------||--0--0--0--0--0--0--0--0--0--0--0--0--0--0--0--0------------------
E-----------||------------------------------------------------------------------
                                                                               
[ Tab from: http://www.guitartabs.cc/tabs/s/slayer/haunting_the_chapel_tab.html ]
                   riff c1 x3 + c2         riff d      riff c1 + c2             
E---------------|-----------------------|-----------|-----------------||--------
B---------------|-----------------------|-----------|-----------------||--------
G---3--2--1--0--|-----------------------|-----------|-----------------||*-------
D---------------|-----------------------|-----------|-----------------||*-------
A---------------|-----------------------|-----------|-----------------||---0----
E---------------|-----------------------|-----------|-----------------||--------
                                                                                
                                                 x4                             
E-------------------------------------------------||--||------------------------
B------------------------------------0--4--3--2---||--||------------------------
G------------------------0--3--2--1--------------*||--||*-----------------------
D------------0--3--2--1--------------------------*||--||*-----------------------
A---3--2--1---------------------------------------||--||---0--0--0--0--0--0-----
E-------------------------------------------------||--||------------------------
                                                                                
                                                                                
D---------------------------------3--5------------------------------------------
A---0--0--0--0--0--0--0--0--0--0--1--3--0--0--0--0--0--0--0--0--0--0--0--0------
E-------------------------------------------------------------------------------
                                                                                
                                                                                
D---------------5--7--------------------------------------------------7--5------
A---0--0--0--0--3--5--0--0--0--0--0--0--0--0--0--0--0--0--0--0--0--0--5--3------
E-------------------------------------------------------------------------------
                                                                                
                                        x5                                      
D---------------------------5--7--5--3--*||-------------------------------------
A---0--0--0--0--0--0--0--0--3--5--3--1---||--0--0--0--0--0--0--0--0--0--0--0----
E----------------------------------------||-------------------------------------
                                                                                
                                                                                
D------------------3--4--------------------------------------------------5------
A---0--0--0--0--0--1--2--0--0--0--0--0--0--0--0--0--0--0--0--0--0--0--0--3------
E-------------------------------------------------------------------------------
                                                                                
                                                                                
D---7--------------------------7--5--------7--5--3--2--||*----------------------
A---5--0--0--0--0--0--0--0--0--5--3--------5--3--1--0--||-----------------------
E------------------------------------------------------||---0--0--0--0--0--0----
                                                                                
                                                                                
D-------------------------------------------------------------------------------
A---------------------------------3--5------------------------------------------
E---0--0--0--0--0--0--0--0--0--0--1--3--0--0--0--0--0--0--0--0--0--0--0--0------
                                                                                
                                                                                
D-------------------------------------------------------------------------------
A---5--7--------------------------------------7--5------------------------------
E---3--5--0--0--0--0--0--0--0--0--0--0--0--0--5--3--0--0--0--0--0--0--0--0------
                                                                                

                x8                                                              
D---------------*||--7--6-----6--5-----5--4-----4--3--------------3--2---------|
A---5--7--5--3---||--5--4-----4--3-----3--2-----2--1-----2--3-----1--0--3--2---|
E---3--5--3--1---||--------------------------------------0--1-----------1--0---|
Comments