Slayer - Guilty Of Being White Chords & Tabs

 

Guilty Of Being White Chords & Tabs

Slayer Chords & Tabs

Version: 1 Type: Bass Tab 0 ratings
1 star 2 stars 3 stars 4 stars 5 stars
comments

Guilty Of Being White Bass Tab

Guilty Of Being White - Slayer
Tabbed by: ryan b

Riff A ( 8 times):
G------------------------------
D------------------------------
Ab------5-------8--------------
Eb--3-------6------------------

Riff B ( 4 times)
G-----------------------------
[ Tab from: http://www.guitartabs.cc/tabs/s/slayer/guilty_of_being_white_btab.html ]
D-----------------------------
Ab--5--5--3-------------------
Eb-------------1--3-3-3-3-3-3-

Riff A (8 times)
Riff B (4 times)

Riff C (4 times)
G---------------------
D---------------------
Ab------------3-------
Eb--5--0--1-----3-----

Riff A (8 times)
Riff B (4 times)

Comments