Slayer - Get Along Chords & Tabs

 

Get Along Chords & Tabs

Slayer Chords & Tabs

Version: 1 Type: Bass Tab 0 ratings
1 star 2 stars 3 stars 4 stars 5 stars
comments

Get Along Bass Tab

Band- Slayer
Song- Get Along

Intro
|----------|--------------|
|----------|--------------|
|----------|----------2-4-|
|-4--------|-4---4--4-----|

Verse
|----------------|-----------------|-----------------|-----------------|
|----------------|-----------------|-----------------|-----------------|
|--4-4-4-4-4-4-4-|-4-4-4-4-4-4-4-4-|-0-0-0-0-0-0-0-0-|-0-0-0-0-0-0-----|
|----------------|-----------------|-----------------|-------------4-2-|

|----------------|-----------------|-----------------|-----------------|
|----------------|-----------------|-----------------|-----------------|
|----------------|-----------------|-----------------|-------------2-4-|
|--2-2-2-2-2-2-2-|-2-2-2-2-2-2-2-2-|-4-4-4-4-4-4-4-4-|-4-4-4-4-4-4-----|

|-----------------|-----------------|-----------------|-----------------|
|-----------------|-----2-3-2-3-2---|-----------------|-----------------|
|-4-4-4-4-4-4-4-4-|-4-4-----------4-|-0-0-0-0-0-0-0-0-|-0-0-0-0-0-0-----|
|-----------------|-----------------|-----------------|-------------4-2-|

|----------------|-----------------|-----------------|-1---------------|
|----------------|-----------------|-----------------|---4-2-1---------|
|----------------|-----------------|-----------------|---------4-2-1-0-|
|--2-2-2-2-2-2-2-|-2-2-2-2-2-2-2-2-|-4-4-4-4-4-4-4-4-|-----------------|

|----------------|-----------------|-----------------|-----------------|
|----------------|-----------------|-----------------|-----------------|
|--0-0-0-0-0-0-0-|-0-0-0-0-0-0-0-0-|-----------------|-4-4-4-4-4-4-2-0-|
|----------------|-----------------|-4-4-4-4-4-4-4-4-|-----------------|
[ Tab from: http://www.guitartabs.cc/tabs/s/slayer/get_along_btab.html ]
|---------------|--------------|----------------|----------------|---1---1------|
|----2-1--------|----------2-1-|--1-1-1-1---1---|----------------|--------------|
|--0------------|--------2-----|----------1-----|----------------|------------4-|
|---------2-4-2-|---2-0--------|--------------4-|--4-4-4-4-4-4-4-|-4---4--------|

Chorus
|----------------|-----------------|----------------|
|----------------|-----------------|----------------|
|--4-4-4-4-4-4-4-|-0-0-0-0-0-0-0-2-|--2-2-2-2-2-2-2-|
|----------------|-----------------|----------------|

|-----------------|-----------------|-----------------|-----------------|
|-----------------|-----------------|-----------------|-----------------|
|-----------------|-4-4-4-4-4-4-4-4-|-----------------|-2-2-2-2-2-2-2-3-|
|-4-4-4-4-4-4-4-4-|-----------------|-2-2-2-2-2-2-2-2-|-----------------|

|----------------|----------------|-----------------|----------------|
|----------------|----------------|-----------------|----------------|
|--3-3-3-3-3-3-4-|--4-4-4-4-4-4-4-|-0-0-0-0-0-0-0-2-|--2-2-2-2-2-2-2-|
|----------------|----------------|-----------------|----------------|

|-----------------|-----------------|-----------------|-----------------|
|-----------------|-----------------|-----------------|-----------------|
|-----------------|-4-4-4-4-4-4-4-4-|-----------------|-2-2-2-2-2-2-2---|
|-4-4-4-4-4-4-4-4-|-----------------|-2-2-2-2-2-2-2-2-|---------------4-|

|----------------|----------------|-----------------|-----------------|
|----------------|----1-----------|-----------------|-----------------|
|--------------3-|--4-------4-2-0-|-0-0-0-0-2-2-2-2-|-4-4-4-4-2-2-2-0-|
|--4-4-4-4-4-4---|------4-4-------|-----------------|-----------------|

|------------|-----------------|-----------------|----------------|
|------------|-----------------|-----------------|----------------|
|--0-0-0-----|-4-4-4-4-4-4-4-4-|-0-0-0-0-0-0-0-2-|--2-2-2-2-2-2-2-|
|------------|-----------------|-----------------|----------------|

|-----------------|
|-----------2-1---|
|-------2-4-----4-|
|-4-4-4-----------|

Repeat Verse

Guitar Solo

Repeat Chorus
Comments