Slayer - Gemini Chords & Tabs

 

Gemini Chords & Tabs

Slayer Chords & Tabs

Version: 1 Type: Tab 0 ratings
1 star 2 stars 3 stars 4 stars 5 stars
comments

Gemini Tab

Gemini (SOLO)
Album: Undisputed attitude
SLAYER

Tabbed by Rudy Guzman

KING
                -----------
C#:----------------------------------------------------15-17-29-20-22--|
G#:---------------------------------17--16-17-16-17-19-----------------|
 E:-19B--------7B-7-7-7-7-7--7B~~~-------------------------------------|
 B:-17B----------------------------------------------------------------|
F#:--------------------------------------------------------------------|
C#:--------------------------------------------------------------------|
                                                   ----------------
:19H20P19H20P19-22-19-20-19-20-22-19-20-22-19-20-22B-22-22-22-22-22-23B-23B-|
:---------------------------------------------------------------------------|
:---------------------------------------------------------------------------|
:---------------------------------------------------------------------------|
:---------------------------------------------------------------------------|
:---------------------------------------------------------------------------|

:-23P20-23P20-23P20-23P20-23-23-23~~~~----------------------|
:--------------------------------------------------9--------|
:-----------------------------------------------9-----9-----|
:---------------------------------------------8----------8--|
:-----------------------------------------/7----------------|
:-----------------------------------------------------------|
[ Tab from: http://www.guitartabs.cc/tabs/s/slayer/gemini_tab.html ]
:------------------------------------------------------|
:--------10--------------------------------------------|
:-----------10-------------------------------5AH-------|
:-----9--------9-------------7-------------------6-----|
:---8--------------------9------8---------8---------7--|
:-7----------------7~~~------------9---8---------------|

:------------------------------------------20-19--19~~~--|
:-----9-----------14----14-------19----19----------------|
:---7----------12----12-------18----18-------------------|
:-6--------11--------------------------------------------|
:--------------------------------------------------------|
:--------------------------------------------------------|

HANNEMAN
:--------------------------------------------------------------------|
:-12B~~~--(12)--12-13-15-12-13-15-12-13-15---------------------------|
:-------------------------------------------14-12-14B-12H14P12-11~~~-|
:--------------------------------------------------------------------|
:--------------------------------------------------------------------|
:--------------------------------------------------------------------|

:----------------------------------------------------|
:----------------------------------------------------|
:----------------------------------------------------|
:-12-12-13-13--10-10-10--9~~~--9---------------------|
:-10-10-11-11----------------------11--10--11--------|
:----------------------------------------------10~~~-|

:----14-----------15------------21------------|
:-------13-----------14------------20-----20B-|
:----------12-----------13------------19--19B-|
:-11-----------12------------18---------------|
:---------------------------------------------|
:---------------------------------------------|
Comments