Slayer - Final Command Chords & Tabs

 

Final Command Chords & Tabs

Slayer Chords & Tabs

Version: 4 Type: Tab 0 ratings
1 star 2 stars 3 stars 4 stars 5 stars
comments

Final Command Tab

Final Command - Slayer

---------------------------------------------------------------------------------|
---------------------------------------------------------------------------------|
---------------------------------------------------------------------------------|
---------------------------------------------------------------------------------|
-0-0-0-3-2-0-3-2-0-0-0-0-3-2-0-5-3-0-0-0-00--3-2-0-3-2-0---3-5-------------------|
---------------------------------------------------------3-1-3-------------------|
---------------------------------------------------------1-----------------------|
        p p   p p         p p   p p         p p   p p
 play this 4 times then play:
----------------------------------------------------------------|
----------------------------------------------------------------|
----------------------------------------------------------------|
-0-0-0-3-2-0-0-0-0-5-3-0-0-0-0-3-2-0---3------------------------|
-------------------------------------3-1------------------------|
-------------------------------------1--------------------------|
        p p         p p         p p
play this 4 times too and then play
----------------------------------------------------------------|
----------------------------------------------------------------|
-0-0-0-3-2-0-0-0-0-5-3-0-0-0-0-3-2-0---3------------------------|
-------------------------------------3-1------------------------|
-------------------------------------1--------------------------|
----------------------------------------------------------------|
        p p         p p         p p
play this 2 times
----------------------------------------------------------------|
----------------------------------------------------------------|
----------------------------------------------------------------|
-0-0-0-3-2-0-0-0-0-5-3-0-0-0-0-3-2-0---3------------------------|
-------------------------------------3-1------------------------|
-------------------------------------1--------------------------|
        p p         p p         p p
[ Tab from: http://www.guitartabs.cc/tabs/s/slayer/final_command_tab_ver_4.html ]
----------------------------------------------------------------|
----------------------------------------------------------------|
----------------------------------------------------------------|
-0-0-0-3-2-0-0-0-0-5-3-0-0-0-0-3-2-0----------------------------|
-------------------------------------3-2-00---------------------|
---------------------------------------------3------------------|
        p p         p p         p p   p p

--------------------------------------------------------------------------------
Final command (solo)

album: show no mercy

slayer


solo
                                                             5 times
e:--------------------------------------------------------*------------*----|
B:--------------------------------------------------------*----16h19p16*-19b|
G:-5h7p5h7p5h7p5h7p5h7p5h7p5h7p5h7p5etc...-7b-7b-7b-7p5---*-18---------*----|
D:------------------------------------------------------7-*------------*----|
A:--------------------------------------------------------*------------*----|
E:--------------------------------------------------------*------------*----|

   play 2 times            play 2 times        play 2 times
e:18p15-18p15-18p15----*-19p16-19p16-19p16---*20p17-20p17-20p17----|
B:------------------17-*-------------------19*------------------20-|
G:---------------------*---------------------*---------------------|
D:---------------------*---------------------*---------------------|
A:---------------------*---------------------*---------------------|
E:---------------------*---------------------*---------------------|

                            4 times 4 times  4 times  4 times         4
times
e:21p18-21p18-21p18----21b-*-9-7-6-*-10-8-7-*-11-9-8-*-12-10-9-*-14b-|-17-15-14-|
B:------------------21-----*-------*--------*--------*---------*-----|----------|
G:-------------------------*-------*--------*--------*---------*-----|----------|
D:-------------------------*-------*--------*--------*---------*-----|----------|
A:-------------------------*-------*--------*--------*---------*-----|----------|
E:-------------------------*-------*--------*--------*---------*-----|----------|

   4 times    4 times    4 times
e:-18-16-15-*-19-17-16-*-20-18-17-*-21b-----19b----------------------------------|
B:----------*----------*----------*---------23b----------------------------------|
G:----------*----------*----------*----------------------------------------------|
D:----------*----------*----------*----------------------------------------------|
A:----------*----------*----------*----------------------------------------------|
E:----------*----------*----------*----------------------------------------------|
---------------------------------------------------------------------------------|
Comments