Slayer - Final Command Chords & Tabs

 

Final Command Chords & Tabs

Slayer Chords & Tabs

Version: 1 Type: Bass Tab 0 ratings
1 star 2 stars 3 stars 4 stars 5 stars
comments

Final Command Bass Tab

Band- Slayer
Song- Final Command

Intro
G:-------------------------------------------------------------|
D:----------------------------------------------------1----1---|
A:----1-3----1-3----1-3----1-3----1----1----1----1--1----1-----|
E:--1------1------1------1------1----1----1----1---------------|


G:------------|
D:------------|
A:---1----1---|
E:-1----1-----|

Verse-Part I
G:-------------------------------------------|
D:-------------------------------------------|
A:-5-5-5-5-5-5-5-5--5h3---3--5--5h3---3------|
E:----------------------5-----------5----5---|

Verse-Part II
G:---------------------------------------------|
D:---------------------------------------------|
A:-7-7-7-7-7-7-7-7--7-7--7-5--7--7-7--7-5--7---|
E:---------------------------------------------|

Verse-Part III
G:---------------------------------------------|
D:-----------------------7-5----------7-5------|
A:-7-7-7-7-7-7-7-7--7-7-------7--7-7-------7---|
E:---------------------------------------------|
[ Tab from: http://www.guitartabs.cc/tabs/s/slayer/final_command_btab.html ]
Chorus-Part I
G:-------------------------------------------|
D:------------------9p7---7-----9p7---7------|
A:-2-2-2-2-2-2-2-2------9----9------9----9---|
E:-------------------------------------------|

Chorus-Part II
G:-------------------------------|
D:-------------------------------|
A:-3--3-3-3-3--3\5--5-5-5-5--5---|
E:-------------------------------|

Chorus-Part III / Outro-Part I
G:----------------|
D:----------3-2---|
A:-7\2-3--5-------|
E:----------------|

Chorus-Part IV / Outro-Part II
G:----------------|
D:----------5-4---|
A:-7\2-3--5-------|
E:----------------|

Guitar-Solo-Part
G:--------------------------------------------------|
D:--------------------------------------------------|
A:-7-7-7-7-7-7-7-7-7-7-7-7-7-7-7-7--5-5-5-5-5-5-5-5-|
E:--------------------------------------------------|

G:-------------------------------------------------|
D:-------------------------------------------------|
A:5-5-5-5-5-5-5-5--3-3-3-3-3-3-3-3-3-3-3-3-3-3-3-3-|
E:-------------------------------------------------|

G:------------------------|
D:------------------------|
A:-2-2-2-2-2-2-2-2-3--5---|
E:------------------------|

Outro-Part III
G:---------|
D:---------|
A:----7----|
E:----0----|
Comments