Slayer - Face The Slayer Chords & Tabs

 

Face The Slayer Chords & Tabs

Slayer Chords & Tabs

Version: 1 Type: Tab 0 ratings
1 star 2 stars 3 stars 4 stars 5 stars
comments

Face The Slayer Tab

Band- Slayer
Song- Face The Slayer

Standard Tuning


 RIFF 1 INTRO x2

|----------------------------------------|
|----------------------------------------|
|----------------------------------------|
|---------------9----------------7-------|
|---------------7----9--10--10---5---7---|
|-0-0-0-0--0--0------7---8---8-------5---|
  . . . .  .  .


|----------------------------------------|
|----------------------------------------|
|----------------------------------------|
|---------------9---------------12--11---|
|---------------7----9--10--10--10---9---|
|-0-0-0-0--0--0------7---8---8-----------|
  . . . .  .  .


 LEAD 1 x4

|KING
|-------------------------------------------------------|
|-------------------------------------------------------|
|-------------------------------------------------------|
|--5--7--8--5--7-----5-----------------------------7----|
|-----------------8-----7--8--5--7-----5--7--8--5-----8-|
|-----------------------------------8-------------------|



 LEAD 1A x4

|KING
|-------------------------------------------------------|
|-------------------------------------------------------|
|-------------------------------------------------------|
|--5--7--8--5--7-----5-----------------------------7----|
|-----------------8-----7--8--5--7-----5--7--8--5-----8-|
|-----------------------------------8-------------------|
|
|
|HANNEMAN
|-------------------------------------------------------|
|-------------------------------------------------------|
|-12-14-15-12-14----12----------------------------14----|
|----------------15----14-15-12-14----12-14-15-12----15-|
|----------------------------------15-------------------|
|-------------------------------------------------------|




 RIFF 2 x4 UNDER LEAD 2A

|-------------------------------------------------------|
|-------------------------------------------------------|
|-------------------------------------------------------|
|-------------------------------------------------------|
|-7-----------------------------------------------------|
|-5-----------------------------------------------------|



 FILL 1

|KING
|-------------------------------------------------------|
|-------------------------------------------------------|
|-------------------------------------------------------|
|--5--7--8--5--7-----5-----------------------------7----|
|-----------------8-----7--8--5--7-----5--7--8--5-----8-|
|-----------------------------------8-------------------|
|
|
|HANNEMAN
|-------------------------------------------------------|
|-------------------------------------------------------|
|-------------------------------------------------------|
|-------------------------------------------------------|
|-5-----------------------------------------------------|
|-3-----------------------------------------------------|
   x



 LEAD 1 x1

 LEAD 1A x4


 RIFF 2A x1 UNDER LEAD 2A

|x2
|-------------------------------------------------------|
|-------------------------------------------------------|
|-------------------------------------------------------|
|-------------------------------------------------------|
|-7-----------------------------------------------------|
|-5-----------------------------------------------------|


|-------------------------------------------------------|
|-------------------------------------------------------|
|-------------------------------------------------------|
|-------------------------------------------------------|
|-3-----------------------------------------------------|
|-1-----------------------------------------------------|


|-------------------------------------------------------|
|-------------------------------------------------------|
|-------------------------------------------------------|
|-------------------------------------------------------|
|-5-----------------------------------------------------|
|-3-----------------------------------------------------|


|-------------------------------------------------------|
|-------------------------------------------------------|
|-------------------------------------------------------|
|-------------------------------------------------------|
|-7-----------------------------------------------------|
|-5-----------------------------------------------------|


|-------------------------------------------------------|
|-------------------------------------------------------|
|-------------------------------------------------------|
|-------------------------------------------------------|
|-3-----------------------------------------------------|
|-1-----------------------------------------------------|


|-------------------------------------------------------|
|-------------------------------------------------------|
|-------------------------------------------------------|
|-------------------------------------------------------|
|-5-----------------------------------------------------|
|-3-----------------------------------------------------|


|x2
|-------------------------------------------------------|
|-------------------------------------------------------|
|-------------------------------------------------------|
|-------------------------------------------------------|
|-7-----------------------------------------------------|
|-5-----------------------------------------------------|




 RIFF 3 MAIN x8

|------------------|
|------------------|
|-------------5----|
|-7---7---7---5----|
|-0-000-000-00-----|
|------------------|
    ..  ..  ..


 RIFF 4 BRIDGE x2

|-----------------|-----------------|
|-----------------|-----------------|
|-----------------|-----------------|
|-7--------10--9--|-----------------|
|-55555555--8--7--|-5---------7-10--|
|-----------------|-33333333--5--8--|
   .......           .......



 RIFF 3 MAIN x4

 RIFF 4 BRIDGE x2

 RIFF 3 MAIN x4


 RIFF 5 BRIDGE x4

|---------------------------------|
|---------------------------------|
|---------------------------------|
|---9---9---9---9--10---7---9---5-|
|---7---7---7---7---8---5---7---3-|
|-0---0---0---0---0---0---0---0---|
  .   .   .   .   .   .   .   .



 RIFF 6 VERSE x8

|---------------------------------|
|---------------------------------|
|---------------------------------|
|---------------------------------|
|-------7^--7-8---------7^--7-----|
|-0-000---------0-0-000-------8-7-|
  . ...         . . ...



 FILL 1 x2

|----------------|
|----------------|
|----------------|
|----------------|
|-------8--------|
|-0-000-6--------|
  . ...



 RIFF 6 VERSE x2


 RIFF 7 BRIDGE x1

|x3                                  |x1
|------------------------------------|------------------------------------|
|------------------------------------|------------------------------------|
|-7-----7-----------7----10----------|-7-----7----------9-----------------|
|-7-----8-----------7-----8----------|-7-----8----------7-----------------|
|---000----00000000---000---00000000-|---000---00000000---000-----7-8-7---|
|------------------------------------|------------------------7-8-------8-|
    ...    ........   ...   ........     ...   ........   ... . .



 RIFF 6 VERSE x4

 FILL 1 x2

 RIFF 6 VERSE x2


 RIFF 7A BRIDGE x2

|------------------------------------|
|------------------------------------|
|-7-----7-----------7----10----------|
|-7-----8-----------7-----8----------|
|---000----00000000---000---00000000-|
|------------------------------------|
    ...    ........   ...   ........



 SOLO 1 HANNEMAN
[ Tab from: http://www.guitartabs.cc/tabs/s/slayer/face_the_slayer_tab.html ]
|-19fb^^^^r--19fb^^^^r----19fb^^^^r--19fb^^^^r----|
|-------------------------------------------------|
|-------------------------------------------------|
|-------------------------------------------------|
|-------------------------------------------------|
|-------------------------------------------------|


|-15-17-19-17-15----------15-17-19-17-15-------19-17-15-------|
|----------------18-17-18----------------18-17----------18-17-|
|-------------------------------------------------------------|
|-------------------------------------------------------------|
|-------------------------------------------------------------|
|-------------------------------------------------------------|


|-19-17-15-------19-17-15-------19-17-15-------|
|----------18-17----------18-17----------18-17-|
|----------------------------------------------|
|----------------------------------------------|
|----------------------------------------------|
|----------------------------------------------|


|---------------------------------------------------------------|
|-18fb^^-18b^^--15-17-18-17-15----------------------------------|
|------------------------------17-16-14-17-16-14----------------|
|------------------------------------------------17-15-14-15-17-|
|---------------------------------------------------------------|
|---------------------------------------------------------------|


|-------------------------------------15-17-19-15-17-19fb^^--|
|-------------------15-17-18-15-17-18------------------------|
|-14-16-17-14-16-17------------------------------------------|
|------------------------------------------------------------|
|------------------------------------------------------------|
|------------------------------------------------------------|




 RIFF 7B x4 UNDER SOLO

|------------------------------------|
|------------------------------------|
|-7-----5-----------4-----5----------|
|-7-----5-----------4-----5----------|
|---000----00000000---000---00000000-|
|------------------------------------|
    ...    ........   ...   ........



 SOLO 2 KING

|-----------------------------------------------------------------------------|
|-----------------------------------------------------------------------------|
|-----------------------------------------------------------------------------|
|-7h9p7h9p7h9p7-9h10p9h10p9h10p9-10h12p10h12p10h12p10-12h14p12----------------|
|--------------------------------------------------------------12h14p12h14p12-|
|-----------------------------------------------------------------------------|


|-------------------------------------------|
|-------------------------------------------|
|-------------------------------------------|
|-10h12p10h12p10h12p10-12h14p12h14p12h14p12-|
|-------------------------------------------|
|-------------------------------------------|


|----------------------------15-16-15-18-15-16-15-18-15-16-15-18-15-16-15-18-|
|-------------------15-17-18-------------------------------------------------|
|----------15-16-18----------------------------------------------------------|
|-14-15-17-------------------------------------------------------------------|
|----------------------------------------------------------------------------|
|----------------------------------------------------------------------------|


|-15-18-15-18-15-18-15-18-15-18-15-18--18-21-18-22-18-21-18-19-------------|
|--------------------------------------------------------------21fb^r\\\\--|
|--------------------------------------------------------------------------|
|--------------------------------------------------------------------------|
|--------------------------------------------------------------------------|
|--------------------------------------------------------------------------|




 RIFF 8 x4 UNDER SOLO 2

|--------------------------|
|--------------------------|
|--------------------------|
|-7----10-----9------------|
|-5-----8-----7----10--7---|
|-------------------8--5---|




 RIFF 8A BREAK x1

|x3                        |
|--------------------------|-----------------------------|
|--------------------------|-----------------------------|
|--------------------------|-----------------------------|
|--------------------------|-----------------------------|
|-555555888888777777-------|-555555888888777777-10---9---|
|-------------------888555-|---------------------8---7---|
  ........................   ..................



 FILL 2 x4

|-------------------------|
|-------------------------|
|-------------------2-----|
|-------------2-------3-2-|
|-------2-------3-0-------|
|-0-2-3---3-0-------------|
  . . . . . .   . .



 FILL 3

|----------------|
|----------------|
|----------------|
|-------2--------|
|-------2--------|
|-0-2-3-0--------|
  . . .



 FILL 4

|------------------------------------------------------------------------|
|------------------------------------------------------------------------|
|------------------------------------------------------------------------|
|--------------2--------5---------2---------------------2--------5-------|
|-3-2---2-3-5--2--------3----5----2--------3-2---2-3-5--2--------3----5--|
|-----3--------0-------------3----0------------3--------0-------------3--|




 RIFF 9 VERSE x4

|------------------------|---------------------------|
|------------------------|---------------------------|
|------------------------|---------------------------|
|---------------------5--|---------------8-7---7-----|
|---5h7---5h7---5h7---5--|---5h7---5h7-------8---8-7-|
|-0-----0-----0-----0----|-0-----0-----0-------------|
  .     .     .     .      .     .     .


|------------------------|---------------------------|
|------------------------|---------------------------|
|------------------------|---------------------------|
|---------------------5--|---------------------5-----|
|---5h7---5h7---5h7---5--|---5h7---5h7---5-----3-----|
|-0-----0-----0-----0----|-0-----0-----0-3---0-------|
  .     .     .     .      .     .     .     .



 RIFF 4A BRIDGE x2

|-----------------|-----------------|
|-----------------|-----------------|
|-----------------|-----------------|
|-4---------7--6--|-----------------|
|-22222222--5--4--|-2---------5--7--|
|-----------------|-00000000--2--5--|
   .......           .......



 RIFF 9 VERSE x2

 RIFF 5 BRIDGE x2


 RIFF 10 OUTRO

|----------------|----------------|-----------------|-----------------|
|----------------|----------------|-----------------|-----------------|
|-------------5--|-------------8--|-------------10--|-------------12--|
|-7---7---7---5--|-7---7---7---8--|-7---7---7---10--|-7---7---7---12--|
|-0-000-000-00---|-0-000-000-00---|-0-000-000-00----|-0-000-000-00----|
|----------------|----------------|-----------------|-----------------|
    ..  ..  ..       ..  ..  ..       ..  ..  ..        ..  ..  ..


|----------------------------------------|
|----------------------------------------|
|-------------5------8------10-------12--|
|-7---7---7---5--7---8--7---10--7----12--|
|-0-000-000-00---0-00---0-00----0-00-----|
|----------------------------------------|
    ..  ..  ..     ..     ..      ..



 FILL 6 END

|KING
|-------------------------------------------------------|------|
|-------------------------------------------------------|------|
|-------------------------------------------------------|------|
|-12-14-15-12-14----12----------------------------------|-7----|
|----------------15----14-15-12-14----12-14-15-12-14----|-7----|
|----------------------------------15----------------15-|-5----|
|
|
|HANNEMAN
|-------------------------------------------------------|------|
|-------------------------------------------------------|------|
|-12-14-15-12-14----12----------------------------------|------|
|----------------15----14-15-12-14----12-14-15-12-14----|-7----|
|----------------------------------15----------------15-|-7----|
|-------------------------------------------------------|-5----|
Comments