Slayer - Evil Has No Boundaries Chords & Tabs

 

Evil Has No Boundaries Chords & Tabs

Slayer Chords & Tabs

Version: 1 Type: Tab 0 ratings
1 star 2 stars 3 stars 4 stars 5 stars
comments

Evil Has No Boundaries Tab

                                SLAYER
                       Evil has no boundaries



--------------------------------------------------------------------------------

  rhy. fig 1
e:----------------------------------|-------------------------------|
B:----------------------------------|-------------------------------|
G:----------------------------------|-------------------------------|
D:----------------------------------|-------------------------6---7-|
A:--5-7-------------5-7-------------|-5-7-------------9---7---4---5-|
E:--0---0-0-0-0-0-0-0---0-0-0-0-0-0-|-0---0-0-0-0-0-0-7---5---------|


                                                  end of rhy fig 1 (play 8x)
e:----------------------------------|-------------------------------|
B:----------------------------------|-------------------------------|
G:----------------------------------|-------------------------------|
D:----------------------------------|-------------------------10----|
A:-5-7--------------5-7-------------|-5-7--------------9---7---8----|
E:-0---0-0-0-0-0-0--0---0-0-0-0-0-0-|-0---0-0-0-0-0-0--7---5--------|


  rhy fig 2
e:-------------------------------|-----------------------------|
B:-------------------------------|-----------------------------|
G:-------------------------------|-----------------------------|
D:--4----------------------------|-4--------------7------6-----|
A:--2--------2--------5-------4--|-2------2-------5------4-----|
E:-----------0--------3-------2--|--------0--------------------|

                                                 end of rhy. fig 2
e:--------------------------------|-------------------------------|
B:--------------------------------|-------------------------------|
G:--------------------------------|-------------------------------|
D:--4-----------------------------|--4-------------7------9-------|
A:--2------2-------5------4-------|--2------2------5------7-------|
E:---------0-------3------2-------|---------0---------------------|

  play rhy fig 1 (4x)


  rhy fig 3
e:-------------------------------------|----------------------------|
B:-------------------------------------|----------------------------|
G:-------------------------------------|----------------------------|
D:-------------------------------------|-------------------9-7-9-10-|
A:-------------------------------------|-------------------7-5-7-8--|
E:--7-7-7-7--7-7-7-7--7-7-7-7--7-7-7-7-|-7-7-7-7--7-7-7-7-----------|


                                                        end of rhy fig 3
e:-------------------------------------|----------------------------|
B:-------------------------------------|----------------------------|
G:-------------------------------------|----------------------------|
D:-------------------------------------|-------------------9-7--12--|
A:-------------------------------------|-------------------7-5--10--|
E:-7-7-7-7--7-7-7-7--7-7-7-7--7-7-7-7--|-7-7-7-7--7-7-7-7-----------|

  play rhy fig 2

  rhy fig 4
e:------------------------------------|-----------------------------|
B:------------------------------------|-----------------------------|
G:------------------------------------|-----------------------------|
D:------------------------------------|-----------------------------|
A:-0-0-0-0--0-0-0-0--0-0-0-0--0-0-0-0-|-0-0-0-0--0-0-0-0--0-0-0-0-0-0-0-0-|
E:------------------------------------|------------------------------------|


                                       end of rhy fig 4--| rhy fig 5
                                       (play 4 times)
e:------------------------------------|------------------|---------------|
B:------------------------------------|------------------|---------------|
G:------------------------------------|------------------|---------------|
D:------------------------------------|-5---4-5----4-5-7-|-7-------------|
A:-0-0-0-0--0-0-0-0--0-0-0-0--0-0-0-0-|-3---2-3----2-3-5-|-9-------------|

E:------------------------------------|------------------|---------------|


                                     end of rhy fig 5 (play 4 times)
e:----------------|-----------------|------------------|
B:----------------|-----------------|------------------|
G:----------------|-----------------|------------------|
D:-5--------------|--7--------------|-5---4-5---4-5-7--|
A:-3--------------|--5--------------|-3---2-3---2-3-5--|
E:----------------|-----------------|------------------|


  rhy fig 6
e:------------------------------------|------------------------------------|
B:------------------------------------|------------------------------------|
G:------------------------------------|------------------------------------|
D:--7---------------------------------|-5----------------------------------|
A:--9---------------------------------|-3----------------------------------|
E:-----0-0--0-0-0-0--0-0-0-0--0-0-0-0-|----0-0--0-0-0-0--0-0-0-0--0-0-0-0--|

                                        end of rhy fig 6 (play 4 times)
e:------------------------------------|--------------------|
B:------------------------------------|--------------------|
G:------------------------------------|--------------------|
D:-7----------------------------------|-5----4-5----4-5-7--|
A:-5----------------------------------|-3----2-3----2-3-5--|
E:----0-0--0-0-0-0--0-0-0-0--0-0-0-0--|--------------------|


e:--------------------|----------------------|-----------------------|
B:--------------------|----------------------|-----------------------|
G:--------------------|----------------------|-----------------------|
D:--5-----------------|-8--------------------|-----------------------|
A:--3-----------------|-6--------------------|-5---------------------|
E:--------------------|----------------------|-3---------------------|


e:-----------------------|-----------------------|-----------------------|
B:-----------------------|-----------------------|-----------------------|
G:-----------------------|-----------------------|-----------------------|
D:-----------------------|-5---------------------|-8---------------------|
A:-7----3----8----7------|-3---------------------|-6---------------------|
E:-5----1----6----5------|-----------------------|-----------------------|


e:-----------------------|----------------------------|
B:-----------------------|----------------------------|
G:-----------------------|----------------------------|
D:-----------------------|----------------------7-----|
A:-3---------------------|-7-----5------4-------5-----|
E:-1---------------------|-5-----3------2-------------|

[ Tab from: http://www.guitartabs.cc/tabs/s/slayer/evil_has_no_boundaries_tab.html ]
e:-------------------------------------------|--------------|
B:-------------------------------------------|--------------|
G:-------------------------------------------|--------------|
D:-------------------------------------------|-12-----------|
A:-2-----------------------------------------|-10-----------|
E:-0-----------------------------------------|-0------------|




--------------------------------------------------------------------------------
evil has no boundries (solo)

album: show no mercy

slayer


solo 1

e:17b-17b-21b-21b-18-18-19-18-21-etc-18-19-21-----------------------------|
B:--------------------------------------------21-18-21b-------------------|
G:-------------------------------------------------------4-5-7-5-4--------|
D:-----------------------------------------------------------------7-4-5-7|
A:------------------------------------------------------------------------|
E:------------------------------------------------------------------------|


e:-----------------------18-21-18-22-18-21-18-22-etc----------------------|
B:-------------------6-------------------------------20b---20b------------|
G:-------------4-5-7------------------------------------------------------|
D:-5-4---4-5-7------------------------------------------------------------|
A:-----7------------------------------------------------------------------|
E:------------------------------------------------------------------------|

solo 2
   bar  bar  bar  bar /\/\/\/\/\/  bar/\/\/\/\/\/\/\/\/\/ bar/\/\/\/\
e:------------------------------------------------------------------------|
B:-----16--------16----(16)--(16)------16h17h16h17h16etc----16h17p16h17etc|
G:-19-------19------------------------------------------------------------|
D:------------------------------------------------------------------------|
A:------------------------------------------------------------------------|
E:------------------------------------------------------------------------|

   bar/\/\/\/\/\/\/
e:----------------------------15-18-15-18-------------------------------------|
B:-18h19p18h19p18etc--20b-20b-------------15-18-15-18-------------------------|
G:----------------------------------------------------15-17-15-17-------------|
D:----------------------------------------------------------------15-17-15-17-|
A:----------------------------------------------------------------------------|
E:----------------------------------------------------------------------------|


e:---------------------------------15h16p15h16p15etc-18h19p18h19p18etc--21b-21b-21b\-|
B:-----------------16p15h16p1h16etc--------------------------------------------------|
G:-----------------------------------------------------------------------------------|
D:-----------------------------------------------------------------------------------|
A:-15-17-15-17-----------------------------------------------------------------------|
E:-------------18\-------------------------------------------------------------------|

solo 3                                                
3times3times3times3times       
e:12p9----12p9----etc-17p14----17p14----etc----------*-----*-----*-----*------|
B:-----12------12-----------17-------17----------17b-*17p14*18p15*19p16*20p17-|
G:-------------------------------------------17b-----*-----*-----*-----*------|
D:---------------------------------------------------*-----*-----*-----*------|
A:---------------------------------------------------*-----*-----*-----*------|
E:---------------------------------------------------*-----*-----*-----*------|

                   2 times                       3times
e:--------------*-------------|-----20-20-20-20-|------*---------------------------|
B:--------------*-------------|7/21-------------|------*---------------------------|
G:12h14p12----12*-12h14p12----|-----------------|-0-3-0*5-0-3-5-0-5-7-0-7-0-9-0-10-|
D:---------14---*----------14-|-----------------|------*---------------------------|
A:--------------*-------------|-----------------|------*---------------------------|
E:--------------*-------------|-----------------|------*---------------------------|

                                                           bar
e:-------------------------------------------------------------19~~~~--------------|
B:---------------------------------------------------------------------------------|
G:0-9-0-10-0-12-0-10-0-12-0-14-0-12-0-14-0---14b-14b-14b---------------------------|
D:---------------------------------------------------------------------3/-15h17p15-|
A:--------------------------------------------------------0------------------------|
E:---------------------------------------------------------------------------------|


                                               bar    bar       vib.
e:--------------------------------------19~~~--------------------------------|
B:---------------------------3/20-20-19-------------5AH-----19b-(19)-(19)----|
G:--------------------------------------------------5AH----------------------|
D:14h16p14-13h15p13-12h14p12-------------------------------------------------|
A:---------------------------------------------------------------------------|
E:---------------------------------------------0-----------------------------|



e:16-17-16-17-19------------------------------------------------------------------|
B:---------------19-16-17-19-17-16------------------------------------------------|
G:---------------------------------19-16-17-19-17-16-16-16-16-16-16-16-16-17-16-17|
D:--------------------------------------------------------------------------------|
A:--------------------------------------------------------------------------------|
E:--------------------------------------------------------------------------------|



                           repeat 2 times
e:-----------------------*----------------------*-------------------------------------|
B:-----------------------*----------------------*-------------------12-13-15-13-14-16-|
G:-----------------------*14-13h16--13-14-13--16*-14-13h16-13-14-16-------------------|
D:19-16-17-19-17-16------*----------------------*-------------------------------------|
A:------------------19-17*----------------------*-------------------------------------|
E:-----------------------*----------------------*-------------------------------------|


6 times
e:-------------------------------------------------------19b--19b----19*---18-19-18|
B:-14-15-17-15-16-18-16-17-19-17-18-20-18-19-21-19-20-22----------19---*19---------|
G:---------------------------------------------------------------------*-----------|
D:---------------------------------------------------------------------*-----------|
A:---------------------------------------------------------------------*-----------|
E:---------------------------------------------------------------------*-----------|



e:16-17-16-17-19---------------------------|
B:---------------19-16-17-19-17-16--19b----|
G:----------------------------------18b----|
D:-----------------------------------------|
A:-----------------------------------------|
E:-----------------------------------------|
--------------------------------------------------------------------------------
  
Comments