Slayer - Evil Has No Boundaries Chords & Tabs

 

Evil Has No Boundaries Chords & Tabs

Slayer Chords & Tabs

Version: 1 Type: Bass Tab 0 ratings
1 star 2 stars 3 stars 4 stars 5 stars
comments

Evil Has No Boundaries Bass Tab

Band- Slayer
Song- Evil Has No Boundaries

Intro (guitar x1)

G:-------------|--------------------|----------------|------------------|
d:-------------|--------------------|----------------|------------------|
A:-------------|--------------------|----------------|------------------|
E:---pause-----|--pause-------------|----pause-------|----pause---------|


G:----------------------------------|---------------------------------------|
D:----------------------------------|---------------------------------------|
A:----------------------------------|--------------------------4---5--------|
E:-0---------------0----------------|-0----------------7---5----------------|

G:----------------------------------|---------------------------------------|
D:----------------------------------|---------------------------------------|
A:----------------------------------|--------------------------8------------|
E:-0---------------0----------------|-0----------------7---5----------------|

riff 1
G:----------------------------------|-----------------------------------|
D:----------------------------------|-----------------------------------|
A:----------------------------------|-------------------------4---5-----|
E:--0---0-0-0-0-0-0-0---0-0-0-0-0-0-|-0---0-0-0-0-0-0-7---5-------------|


                                                  end of riff 1 (play 6x)
G:----------------------------------|---------------------------------------|
D:----------------------------------|---------------------------------------|
A:----------------------------------|--------------------------8------------|
E:-0---0-0-0-0-0-0--0---0-0-0-0-0-0-|-0---0-0-0-0-0-0--7---5----------------|


  riff 2
G:-------------------------------|-----------------------------|
D:-------------------------------|-----------------------------|
A:--2----------------------------|-2--------------5------4-----|
E:-----------0--------3-------2--|--------0--------------------|

                                                 end of riff 2
G:--------------------------------|-------------------------------|
D:--------------------------------|-------------------------------|
A:--2-----------------------------|--2-------------5------7-------|
E:---------0-------3------2-------|---------0---------------------|

  play riff 1 (4x)


  riff 3
G:-------------------------------------|----------------------------|
D:-------------------------------------|----------------------------|
A:-------------------------------------|-------------------7-5-7-8--|
E:--7-7-7-7--7-7-7-7--7-7-7-7--7-7-7-7-|-7-7-7-7--7-7-7-7-----------|


                                                        end of riff 3
G:-------------------------------------|--------------------------------|
D:-------------------------------------|--------------------------------|
A:-------------------------------------|-------------------7-5--10------|
E:-7-7-7-7--7-7-7-7--7-7-7-7--7-7-7-7--|-7-7-7-7--7-7-7-7---------------|

  play riff 2
[ Tab from: http://www.guitartabs.cc/tabs/s/slayer/evil_has_no_boundaries_btab.html ]
  riff 4
e:------------------------------------|------------------------------------|
B:------------------------------------|------------------------------------|
G:------------------------------------|------------------------------------|
D:------------------------------------|------------------------------------|
A:-0-0-0-0--0-0-0-0--0-0-0-0--0-0-0-0-|-0-0-0-0--0-0-0-0--0-0-0-0--0-0-0-0-|
E:------------------------------------|------------------------------------|


                                       end of riff 4-----|
                                       (play 4 times)
G:------------------------------------|------------------|
D:------------------------------------|------------------|
A:-0-0-0-0--0-0-0-0--0-0-0-0--0-0-0-0-|-3---2-3----2-3-5-|
E:------------------------------------|------------------|


  riff 5                                                  end of riff 5(x4)
G:---------------|----------------|-----------------|------------------|
D:---------------|----------------|-----------------|------------------|
A:-9-------------|-3--------------|--5--------------|-3---2-3---2-3-5--|
E:---------------|----------------|-----------------|------------------|


  riff6.1
G:------------------------------------|------------------------------------|
D:------------------------------------|------------------------------------|
A:--9---------------------------------|-3----------------------------------|
E:------------------------------------|------------------------------------|

                                        end of riff 6.1 (play 2 times)
G:------------------------------------|--------------------|
D:------------------------------------|--------------------|
A:-5----------------------------------|-3----2-3----2-3-5--|
E:------------------------------------|--------------------|


 riff 6.2
G:------------------------------------|------------------------------------|
D:------------------------------------|------------------------------------|
A:--9---------------------------------|-3----------------------------------|
E:-----0-0--0-0-0-0--0-0-0-0--0-0-0-0-|----0-0--0-0-0-0--0-0-0-0--0-0-0-0--|

                                        end of riff 6.2 (play 2 times)
G:------------------------------------|--------------------|
D:------------------------------------|--------------------|
A:-5----------------------------------|-3----2-3----2-3-5--|
E:----0-0--0-0-0-0--0-0-0-0--0-0-0-0--|--------------------|


G:--------------------|----------------------|-----------------------|
D:--------------------|----------------------|-----------------------|
A:--3-----------------|-6--------------------|-----------------------|
E:--------------------|----------------------|-3---------------------|


G:-----------------------|-----------------------|-----------------------|
D:-----------------------|-----------------------|-----------------------|
A:-----------------------|-3---------------------|-6---------------------|
E:-5----1----6----5------|-----------------------|-----------------------|


G:-----------------------|----------------------------|
D:-----------------------|----------------------------|
A:-----------------------|----------------------5-----|
E:-1---------------------|-5-----3------2-------------|


G:-------------------------------------------|--------------|
D:-------------------------------------------|--------------|
A:-------------------------------------------|--------------|
E:-0-----------------------------------------|-0------------|
   //
   //
   //
Comments