Slayer - Epidemic Chords & Tabs

 

Epidemic Chords & Tabs

Slayer Chords & Tabs

Version: 1 Type: Bass Tab 0 ratings
1 star 2 stars 3 stars 4 stars 5 stars
comments

Epidemic Bass Tab

Band- Slayer
Song- Epidemic

Riff 1:
Gb|---------------------------------|----------------------------------|
Db|---------------------------------|----------------------------------|
Ab|---------------------------------|------------------------------2/1-| 
Eb|-0-00000-0-00000-1-000-1-000-4/3-|--0-00000-0-00000-1-000-1-000-----|

Riff 2:
Gb|---------------------------------|
Db|---------------------------------|
Ab|---------------------------------|
Eb|-2-22222-2-22222-2-222--6--5--3--|

Riff 3:
Gb|-------------------|-----------------|-------------------|----------------|
Db|-------------------|-----------------|-------------------|----------------|
Ab|-------------------|-----------------|-------------------|----------------|
Eb|-0-00000-3-5-6p5p3-|-0-00000-1-0-4/3-|-0-00000-3-5-6p5p3-|-0-00000-0-1--1-|

Riff 4: 
Gb|--------------------------------|
Db|--------------------------------|
Ab|--------------------------------|
Eb|-4-44444-4-44444-4-444--5--7--5-|
[ Tab from: http://www.guitartabs.cc/tabs/s/slayer/epidemic_btab.html ]
Riff 5:
Gb|----------------------------------------------------------------|
Db|----------------------------------------------------------------|
Ab|--7------10------10-----9-------8------8-----7-----10-----10----|
Eb|----0-0------0-0-----0-----000-----0-0----0----0-0----0-0-----0-|

Gb|-----------------------------------------------------------------------------------|
Db|-----------------------------------------------------------------------------------|
Ab|--7------10------10-----9-------8------8-----7-----10-----10------9----------------|
Eb|----0-0------0-0-----0-----000-----0-0----0----0-0----0-0-----0-----000-000-000-00-|

Riff 6:
Gb|------------------------------------------|-------|
Db|------------------------------------------|-------|
Ab|-9//--------------------------------------|-------|
Eb|------------------------------------------|-l-3-3-|

Playlist:
Riff 1 x4
Riff 2 x4
Riff 3 x4
Riff 4 x4
Riff 2 x4
Riff 3 x2
Riff 4 x4
Riff 5 x3
Riff 4 x8
Riff 1 x2
Riff 6 x1
Comments