Slayer - Drunk Drivers Against Mad Mothers Chords & Tabs

 

Drunk Drivers Against Mad Mothers Chords & Tabs

Slayer Chords & Tabs

Version: 1 Type: Bass Tab 0 ratings
1 star 2 stars 3 stars 4 stars 5 stars
comments

Drunk Drivers Against Mad Mothers Bass Tab

Band- Slayer
Song- Drunk Drivers Against Mad Mothers

G||---------------|--------------|--------------------|-----------------------------|
D||---------------|--------------|--------------------|-----------------------------|
A||---------------|-----------5--|--5--5----5----4----|--4----4--3--3--3------------|
E||--18/-4--4--4--|--4--5--5-----|--------------------|-----------------5----5------|

[ Tab from: http://www.guitartabs.cc/tabs/s/slayer/drunk_drivers_against_mad_mothers_btab.html ]
                                                                x however many times
----------------------|------------|----------------------|-------|------|
----------------------|------------|----------------------|-------|------|
----------------------|--5----5----|--5----4----4----4----|--4----|-3-3-3|
--4----5----5----5----|------------|----------------------|-------|------|


------|------|------|----------|-------------------|----------------------|
------|------|------|----------|-------------------|----------------------|
------|------|------|------3-2-|---------3----2----|------------3----2----|
------|------|------|--3-2-----|--3-2--------------|--3----2--------------|


                                             x howver many times again lol
----------------------|------|------|------||
----------------------|------|------|------||
------------3----2----|------|------|------||
--3----2--------------|------|------|------||
Comments