Slayer - Divine Intervention Chords & Tabs

 

Divine Intervention Chords & Tabs

Slayer Chords & Tabs

Version: 5 Type: Tab 0 ratings
1 star 2 stars 3 stars 4 stars 5 stars
comments

Divine Intervention Tab

   
Divine Intervention
by Slayer
ALBUM: Divine Intervention
--------------------------------------------------------------------------------
PM = Palm Mute
Tuning-Eb,Ab,Db,Gb,Bb,Eb
Tempo: slow (74 bpm)
INTRO:
RIFF 1: (*2 times)
Gtr.1Eb||-------------------------------------------------|-------------------------------------------------||
Gtr.2Bb||-------------------------------------------------|-------------------------------------------------||
     Gb||-------------------------------------------------|-------------------------------------------------||
     Db||-9-----------9--------9-----9--9--9--9--9--9-----|-12----------12-------12----12-12-12-12-12-12----||
     Ab||-10----------10-------10----10-10-10-10-10-9-----|-13----------13-------13----13-13-13-13-13-12----||
     Eb||----0--0--0-----0--0--------------------------0--|----0--0--0-----0--0--------------------------0--||
             .  .  .     .  .                          .       .  .  .     .  .                          .
RIFF 1A: (*2 times)
Gtr.1Eb||-------------------------------------------------|-------------------------------------------------||
Gtr.2Bb||-------------------------------------------------|-------------------------------------------------||
     Gb||-------------------------------------------------|-------------------------------------------------||
     Db||-9-----------9-----9--9-----9--9--9--9--9--9-----|-12----------12----12-12----12-12-12-12-12-12----||
     Ab||-10----------10----10-10----10-10-10-10-10-9-----|-13----------13----13-13----13-13-13-13-13-12----||
     Eb||----0--0--0-----0-----------------------------0--|----0--0--0-----0-----------------------------0--||
             .  .  .     .                             .       .  .  .     .                             .
Tempo: slower (67 bpm)
RIFF 2: (*4 times)
Gtr.1Eb||-------------------------------------------------|-------------------------------------------------||
Gtr.2Bb||-------------------------------------------------|-------------------------------------------------||
     Gb||-------------------------------------------------|-------------------------------------------------||
     Db||-------------------------------------9--9--9--9--|-------------------------------------12-12-12-12-||
     Ab||-------------------------------------10-10-10-9--|-------------------------------------13-13-13-12-||
     Eb||-0-0-0-0-0-0-0-0-0-0-0-0-0-0-0-0-0-0-------------|-0-0-0-0-0-0-0-0-0-0-0-0-0-0-0-0-0-0-------------||
          . . . . . . . . . . . . . . . . . .               . . . . . . . . . . . . . . . . . .
RIFF 3:
Gtr.1Eb|--------------------------------------------------|-------------------------------------------------|
     Bb|--------------------------------------------------|-------------------------------------------------|
     Gb|--------------------------------------9-----------|-------------------------------------9-----------|
     Db|--------------9~~~~~~--------------------10~~~~~--|-------------9~~~~~~--------------------10-9~~~--|
     Ab|--------7-----------------------7-----------------|-------7-----------------------7-----------------|
     Eb|--0--------------------0-----0--------------------|-0--------------------0-----0--------------------|
       |                                                  |                                                 |
Gtr.2Eb|--------------------------------------------------|-------------------------------------------------|
     Bb|--------------------------------------------------|-------------------------------------------------|
     Gb|--9----(9)\---------------------------------------|-------------------------------------------------|
     Db|--9----(9)\---------------------------------------|-------------------------------------------------|
     Ab|--7----(7)\---------------------------------------|-------------------------------------------------|
     Eb|--------------------------------------------------|-------------------------------------------------|

Gtr.1Eb|--------------------------------------------------|-------------------------------------------------|
     Bb|--------------------------------------------------|-------------------------------------------------|
     Gb|--------------------------------------9-----------|-------------------------------------9-----------|
     Db|--------------9~~~~~~--------------------10~~~~~--|-------------9~~~~~~--------------8-----10-9~~~--|
     Ab|--------7-----------------------7-----------------|-------7-----------------------7-----------------|
     Eb|--0--------------------0-----0--------------------|-0--------------------0-----0--------------------|
       |                                                  |                                                 |
Gtr.2Eb|--------------------------------------------------|-------------------------------------------------|
     Bb|--------------------------------------------------|-------------------------------------------------|
     Gb|--------------------------------------------------|-------------------------------------------------|
     Db|--2-----------------------------------------------|-2-----------------------------------------------|
     Ab|--2-----------------------------------------------|-2-----------------------------------------------|
     Eb|--0-----------------------------------------------|-0-----------------------------------------------|
RIFF 3A:
Gtr.1Eb|--------------------------------------------------|-------------------------------------------------|
     Bb|--------------------------------------------------|-------------------------------------------------|
     Gb|--------------------------------------9-----------|-------------------------------------9-----------|
     Db|--------------9~~~~~~--------------------10~~~~~--|-------------9~~~~~~--------------------10-9~~~--|
     Ab|--------7-----------------------7-----------------|-------7-----------------------7-----------------|
     Eb|--0--------------------0-----0--------------------|-0--------------------0-----0--------------------|
       |                                                  |                                                 |
Gtr.2Eb|--------------------------------------------------|-------------------------------------------------|
     Bb|--------------------------------------------------|-------------------------------------------------|
     Gb|-----R-----------R-----------R--------------R-----|----R-----------R-----------R-----------------R--|
     Db|-----E-----------E-----------E--------------E-----|----E-----------E-----------E-----------------E--|
     Ab|-----S-----------S-----------S--------------S-----|----S-----------S-----------S-----------------S--|
     Eb|--0--T-----0--0--T--------0--T-----0--0--0--T-----|-0--T-----0--0--T--------0--T-----0--0--0--0--T--|
          .        .  .           .        .  .  .          .        .  .           .        .  .  .  .

Gtr.1Eb|--------------------------------------------------|-------------------------------------------------|
     Bb|--------------------------------------------------|-------------------------------------------------|
     Gb|--------------------------------------9-----------|-------------------------------------9-----------|
     Db|--------------9~~~~~~--------------------10~~~~~--|-------------9~~~~~~--------------8-----10-9~~~--|
     Ab|--------7-----------------------7-----------------|-------7-----------------------7-----------------|
     Eb|--0--------------------0-----0--------------------|-0--------------------0-----0--------------------|
       |                                                  |                                                 |
Gtr.2Eb|--------------------------------------------------|-------------------------------------------------|
     Bb|--------------------------------------------------|-------------------------------------------------|
     Gb|-----R-----------R-----------R--------------R-----|----R-----------R-----------R--------------------|
     Db|-----E-----------E-----------E--------------E-----|----E-----------E-----------E--------------------|
     Ab|-----S-----------S-----------S--------------S-----|----S-----------S-----------S--------------------|
     Eb|--0--T-----0--0--T--------0--T-----0--0--0--T-----|-0--T-----0--0--T--------0--T-----0--0--0--0-/---|
          .        .  .           .        .  .  .          .        .  .           .        .  .  .  .
RIFF 4: (guitars 3,4,5 - clean )
Gtr.1Eb|--------------------------------------------------|-------------------------------------------------|
Gtr.2Bb|--------------------------------------------------|-------------------------------------------------|
     Gb|--9----(9)\---------------------------------------|-------------------------------------------------|
     Db|--9----(9)\---------------------------------------|-------------------------------------------------|
     Ab|--7----(7)\---------------------------------------|-------------------------------------------------|
     Eb|--------------------------------------------------|-------------------------------------------------|
       |                                                  |                                                 |
Gtr.3Eb|--------------------------------------------------|-------------------------------------------------|
Gtr.4Bb|--------------------------------------------------|-------------------------------------------------|
     Gb|--------------7-----------------10-------9--------|-------------7-----------------10-------9--------|
     Db|--------9-----5--------8--------8--------7--------|-------9-----5--------8--------8--------7--------|
     Ab|--------7--------------6--------------------------|-------7--------------6--------------------------|
     Eb|--0-----------------0--------0--------0-----------|-0-----------------0--------0--------0-----------|
       |                                                  |                                                 |
Gtr.5Eb|--------------------------------------------------|-------------------------------------------------|
     Bb|--------------------------------------------------|-------------------------------------------------|
     Gb|--------------12----------------15-------14-------|-------------12----------------15-------14-------|
     Db|--------14-------------13-------------------------|-------14-------------13-------------------------|
     Ab|--------------------------------------------------|-------------------------------------------------|
     Eb|--0-----------------0--------0--------0-----------|-0-----------------0--------0--------0-----------|
[ Tab from: http://www.guitartabs.cc/tabs/s/slayer/divine_intervention_tab_ver_5.html ]
                                                                                                        A -
Gtr.1Eb|--------------------------------------------------|-------------------------------------------------|
Gtr.2Bb|--------------------------------------------------|-------------------------------------------------|
     Gb|--------------------------------------------------|-------------------------------------------------|
     Db|--------------------------------------------------|-------------2---- swell with volume knob -------|
     Ab|--------------------------------------------------|-------------2-----------------------------------|
     Eb|--------------------------------------------------|-------------0-----------------------------------|
       |                                                  |                                                 |
Gtr.3Eb|--------------------------------------------------|-------------------------------------------------|
Gtr.4Bb|--------------------------------------------------|-------------------------------------------------|
     Gb|--------------7-----------------10-------9--------|-------------7-----------------10-------9--------|
     Db|--------9-----5--------8--------8--------7--------|-------9-----5--------8--------8--------7--------|
     Ab|--------7--------------6--------------------------|-------7--------------6--------------------------|
     Eb|--0-----------------0--------0--------0-----------|-0-----------------0--------0--------0-----------|
       |                                                  |                                                 |
Gtr.5Eb|--------------------------------------------------|-------------------------------------------------|
     Bb|--------------------------------------------------|-------------------------------------------------|
     Gb|--------------12----------------15-------14-------|-------------12----------------15-------14-------|
     Db|--------14-------------13-------------------------|-------14-------------13-------------------------|
     Ab|--------------------------------------------------|-------------------------------------------------|
     Eb|--0-----------------0--------0--------0-----------|-0-----------------0--------0--------0-----------|
Tempo: slow (74 bpm)
VERSE 1:
      - waken              in a web like hell.            How         did I   reach this  place?
Gtr.1Eb|-------------------------------------------------|-------------------------------------------------|
Gtr.2Bb|-------------------------------------------------|-------------------------------------------------|
     Gb|-------------------------------------------------|-------------------------------------------------|
     Db|-------------------------------------------------|-------------------------------------------------|
     Ab|-------------------------------------2--2--2--2--|-------------------------------------5--5--5--5--|
     Eb|-0-0-0-0-0-0-0-0-0-0-0-0-0-0-0-0-0-0-3--3--3--2--|-0-0-0-0-0-0-0-0-0-0-0-0-0-0-0-0-0-0-6--6--6--5--|
         . . . . . . . . . . . . . . . . . .               . . . . . . . . . . . . . . . . . .
        Why         are they  haunting  me?                I   cannot  lo - ok  at  God's  face.
Gtr.1Eb|-------------------------------------------------|-------------------------------------------------|
Gtr.2Bb|-------------------------------------------------|-------------------------------------------------|
     Gb|-------------------------------------------------|-------------------------------------------------|
     Db|-------------------------------------------------|-------------------------------------------------|
     Ab|-------------------------------------2--2--2--2--|-------------------------------------5--5--5--5--|
     Eb|-0-0-0-0-0-0-0-0-0-0-0-0-0-0-0-0-0-0-3--3--3--2--|-0-0-0-0-0-0-0-0-0-0-0-0-0-0-0-0-0-0-6--6--6--5--|
         . . . . . . . . . . . . . . . . . .               . . . . . . . . . . . . . . . . . .
        Pa - raly - zing      brilliant  light.          Try - ing    to  run.
Gtr.1Eb|-------------------------------------------------|-------------------------------------------------|
Gtr.2Bb|-------------------------------------------------|-------------------------------------------------|
     Gb|-------------------------------------------------|-------------------------------------------------|
     Db|-------------------------------------------------|-------------------------------------------------|
     Ab|-------------------------------------2--2--2--2--|-------------------------------------5--5--5--5--|
     Eb|-0-0-0-0-0-0-0-0-0-0-0-0-0-0-0-0-0-0-3--3--3--2--|-0-0-0-0-0-0-0-0-0-0-0-0-0-0-0-0-0-0-6--6--6--5--|
         . . . . . . . . . . . . . . . . . .               . . . . . . . . . . . . . . . . . .
        Want  to  scream,  but cannot   speak.             I   cannot  lo - ok  at  God's  face.
Gtr.1Eb|-------------------------------------------------|-------------------------------------------------|
Gtr.2Bb|-------------------------------------------------|-------------------------------------------------|
     Gb|-------------------------------------------------|-------------------------------------------------|
     Db|-------------------------------------------------|-------------------------------------------------|
     Ab|-------------------------------------2--2--2--2--|-------------------------------------5--5--5--5--|
     Eb|-0-0-0-0-0-0-0-0-0-0-0-0-0-0-0-0-0-0-3--3--3--2--|-0-0-0-0-0-0-0-0-0-0-0-0-0-0-0-0-0-0-6--6--6--5--|
         . . . . . . . . . . . . . . . . . .               . . . . . . . . . . . . . . . . . .
SOLO 1:
Gtr.1Eb|--------------------------------------------------------------------------|
Gtr.2Bb|--------------------------------------------------------------------------|
     Gb|--------------------------------------------------------------------------|
     Db|--------------------------------------------------------------------------|
     Ab|--------------------4--------------------------------------------------1--|
     Eb|--1--1--1--1--1--1--2--1--1--1--1--1--1--1--1--1--1--1--1--1--1--2--4-----|
       |  .  .  .  .  .  .     .  .  .  .  .  .  .  .  .  .  .  .  .  .  .  .  .  |
Gtr.4Eb|--------------------------------------------------------------------------|
     Bb|--------------------------------------------------------------------------|
     Gb|---------------------------------------------------------------------8-10-|
     Db|-----------------------------------------------------8--10----8-10-11-----|
     Ab|-----------------------------------8--9-----8--9--11-------11-------------|
     Eb|-/8-----------------------8--9--11-------11-------------------------------|

Gtr.1Eb|--------------------------------------------------------------------------|
Gtr.2Bb|--------------------------------------------------------------------------|
     Gb|--------------------------------------------------------5-----4-----3-----|
     Db|--------------------------------------------------------6-----5-----4-----|
     Ab|--------------------4-----------------------------------6-----5-----4-----|
     Eb|--1--1--1--1--1--1--2--1--1--1--1--1--1--1--1--1--1--1--4-----3-----2-----|
       |  .  .  .  .  .  .     .  .  .  .  .  .  .  .  .  .  .                    |
Gtr.4Eb|-----------------------------------------------------------------------------|
     Bb|-----------------9--11-9-----------------------------------------------------|
     Gb|--11-8-10-10-11p8---------11-10--8----10--8----------------------------------|
     Db|----------------------------------11-------11-10--8-----10-8-----------------|
     Ab|-----------------------------------------------------11------11--9--8--------|
     Eb|----------------------------------------------------------------------11-----|

Gtr.1Eb|--------------------------------------------------------------------------|
Gtr.2Bb|--------------------------------------------------------------------------|
     Gb|--------------------------------------------------------------------------|
     Db|--------------------------------------------------------------------------|
     Ab|--------------------4--------------------------------------------------1--|
     Eb|--1--1--1--1--1--1--2--1--1--1--1--1--1--1--1--1--1--1--1--1--1--2--4-----|
       |  .  .  .  .  .  .     .  .  .  .  .  .  .  .  .  .  .  .  .  .  .  .  .  |
Gtr.4Eb|--------------------------------------------------------------------------|
     Bb|--------------------------------------------------------------------------|
     Gb|-----------------------------------------------------------------3-/------|
     Db|-------------------------------------/10------------------(10)\-----------|
     Ab|--8~~~~~~~~~~~~~~~~~~~~~~~--(8)-\3----------------------------------------|
     Eb|--------------------------------------------------------------------------|

Gtr.1Eb|--------------------------------------------------------------------------|
Gtr.2Bb|--------------------------------------------------------------------------|
     Gb|--------------------------------------------------------4-----3-----2-----|
     Db|--------------------------------------------------------4-----3-----2-----|
     Ab|--------------------4-----------------------------------2-----1-----0-----|
     Eb|--1--1--1--1--1--1--2--1--1--1--1--1--1--1--1--1--1--1--2-----1-----0-----|
       |  .  .  .  .  .  .     .  .  .  .  .  .  .  .  .  .  .                    |
Gtr.4Eb|-------------------------------------------------------------------------------------------------|
     Bb|--------------------13-13-13-------13-13-13-14-14-14-------14-14-14-16-16-16-17-18-18-19-19-19---|
     Gb|--15-15-15-13-13-15-15-15-------15-15-15-------------16b17---------------------------------------|
     Db|-------------------------------------------------------------------------------------------------|
     Ab|-------------------------------------------------------------------------------------------------|
     Eb|-------------------------------------------------------------------------------------------------|
CHORUS:
       Blind  my e - yes,      I   can't  see            what  is     be - ing  do - ne  to  me.
Gtr.1Eb|-------------------------------------------------|--------------------------------------------------------------------|
Gtr.2Bb|-------------------------------------------------|--------------------------------------------------------------------|
     Gb|-------------------------------------------------|--------------------------------------------------------------------|
     Db|-------------------------------------------------|--------------------------------------------------------------------|
     Ab|-6-----------------------6-----------------------|-7-----------------------8-----------9---8---7----------------------|
     Eb|-4-----2-2-2-2-2-2-2-2-2-2-2-2-4-----2-2-2-2-2-2-2-2-2-2-2-2-|-5-----3-3-3-3-3-3-3-3-3-3-3-3-6-----4-4-4-4-7---6---5--|
               . . . . . . . . . . . .       . . . . . . . . . . . .         . . . . . . . . . . . .       . . . .
         In   my  mind         on - ly  pa - in,          all  the  me - mo - ries   are drained.
Gtr.1Eb|-------------------------------------------------|--------------------------------------------------------------------|
Gtr.2Bb|-------------------------------------------------|--------------------------------------------------------------------|
     Gb|-------------------------------------------------|--------------------------------------------------------------------|
     Db|-------------------------------------------------|--------------------------------------------------------------------|
     Ab|-6-----------------------6-----------------------|-7-----------------------8-----------5---4---3----------------------|
     Eb|-4-----2-2-2-2-2-2-2-2-2-2-2-2-4-----2-2-2-2-2-2-2-2-2-2-2-2-|-5-----3-3-3-3-3-3-3-3-3-3-3-3-6-----4-4-4-4-3---2---1--|
               . . . . . . . . . . . .       . . . . . . . . . . . .         . . . . . . . . . . . .       . . . .
VERSE 2
Tempo: faster (98 bpm)
SOLO 2,
RIFF under SOLO 2:
Gtr.1Eb|--------------------------------------------------|-------------------------------------------------|
Gtr.2Bb|--------------------------------------------------|-------------------------------------------------|
     Gb|--------------------------------------------------|-------------------------------------5-----------|
     Db|--2-----------------------------2-----2-----------|-------------2-----------------------2-----------|
     Ab|--2-----------------------------2-----1-----------|-------------3-----------2~~~~~~-----------------|
     Eb|--0--0--0--0--0--0--0--0--0--0--0-----0--0--0--0--|-0--0--0--0--------------------------------------|
             .  .  .  .  .  .  .  .  .           .  .  .    .  .  .  .

--------------------------------------------------------------------------------
Solo


solo 2
eb:------------------------------------------------------9-10-12-10-9-----------------|
Bb:------------------------------------12~~~--12b~~~~~----------------12-10-9---------|
Gb:--------------------------12-13-15-----------------------------------------12-10-9-|
Db:-----------------12-13-15----------------------------------------------------------|
Ab:-7--------12-15--------------------------------------------------------------------|
Eb:-9---7~~~--------------------------------------------------------------------------|
            pm. .   .   .  .

eb:-----------------------------------------------------------------|
Bb:--------------------------------------9AH-----------------9AH----|
Gb:----------------------------------------------------9------------|
Db:-11-9-8-----------------------------------------------8b---------|
Ab:--------7-8-7-8-10-8-7------------7b-------------7---------------|
Eb:-----------------------10-8-7b~~~---------7-8-10-----------------|

eb:-----------------------------12------------------------12---|
Bb:----------------------12~~~------12b-12b-12b--12-13-15------|
Gb:---------9~~~-9-10-12---------------------------------------|
Db:-9-10-12----------------------------------------------------|
Ab:------------------------------------------------------------|
Eb:------------------------------------------------------------|

    3 times
eb:----19-22-19-|---------------------------------------------|
Bb:-21----------|-21-19-18------------------------------------|
Gb:-------------|----------21-19-18---------------------------|
Db:-------------|-------------------20-18-17------------------|
Ab:-------------|----------------------------20-18-17---------|
Eb:-------------|-------------------------------------20-17\--|


solo 3
eb:12-13-12-13-12-13-15-13-12---------------------------------------------------------------|
Bb:---------------------------15-13-12-13-12-15-13-12---------------------------------------|
Gb:---------------------------------------------------15-13-12-13-12-11-12-11-12-11-14-12-11|
Db:-----------------------------------------------------------------------------------------|
Ab:-----------------------------------------------------------------------------------------|
Eb:-----------------------------------------------------------------------------------------|

eb:----------------------------------------------------------------------|
Bb:----------------------------------------------------------------------|
Gb:---------11-----------------------------------------------------------|
Db:14-12-14----14-12-11-12-11-12-14-12-11---------11---------------------|
Ab:--------------------------------------14-12-14----14-12-11-12-11-12---|
Eb:----------------------------------------------------------------------|

                           2 times          bend full---------------|
eb:----------------------|-------------|----------------------------|
Bb:----------------------|-------------|--7-8-10-10b-10-10-10-10\---|
Gb:----------------------|-7-8-9-7-8-9-|----------------------------|
Db:-----------7-8-7-8-10-|-------------|----------------------------|
Ab:-8-7-8-10-------------|-------------|----------------------------|
Eb:----------------------|-------------|----------------------------|


      bar                                    bar
eb:-----------------------------------------------------------------------------------|
Bb:-----------------------------------------------------------------------------------|
Gb:-2~~~--2-3-2-3-5-2-3---------------------------------------------------------------|
Db:---------------------5-3-2-3-2-5-3-2-----------------------------------------------|
Ab:-------------------------------------5-3-2b----------------------12-13-14-12-13-14-|
Eb:-----------------------------------------------12-13-15-12-13-15-------------------|


eb:---------------------------------------------------------------------------------|
Bb:------------------------------------12-13-15-12-13-15----------12-13-15-12-13-15-|
Gb:------------------12-13-15-12-13-15-------------------15-13-12-------------------|
Db:12-13-14-12-13-14----------------------------------------------------------------|
Ab:---------------------------------------------------------------------------------|
Eb:---------------------------------------------------------------------------------|

eb:-12-13-15-------17b---22b-|
Bb:----------17b-------------|
Gb:--------------------------|
Db:--------------------------|
Ab:--------------------------|
Eb:--------------------------|


solo 4
eb:-21b-21b-21b-21-21-21-19-19-22-22-21-21-19--------------------------------------------|
Bb:-------------------------------------------22-19-21-22-21-19--------------------------|
Gb:-------------------------------------------------------------22-21-19-----------------|
Db:----------------------------------------------------------------------21b-21b-21b-21b-|
Ab:--------------------------------------------------------------------------------------|
Eb:--------------------------------------------------------------------------------------|

eb------------------------------------------------------------------------------------------|
Bb------------------------------------------------------------------------------------------|
Gb21\-21b-21b-21b-21b-21\--------------------------------------------------12-13-15-12-13-15|
Db-------------------------------------------------------12-13-15-12-13-15------------------|
Ab------------------------12-12-13-13-15-13-12-15-13-12-------------------------------------|
Eb------------------------------------------------------------------------------------------|


eb:----------------------------------------------|
Bb:12-13-15-13-12--------------------------------|
Gb:---------------15b-14AH~~~~-15~~~---(15)------|
Db:----------------------------------------------|
Ab:----------------------------------------------|
Eb:-----------------------------------------19\--|


solo 5
eb:------*--------*--------*----------*----------*----------*----------------------*12-13-15-|
Bb:------*--------*--------*----------*----------*----------*---------------17b----*---------|
Gb:------*--------*--------*----------*----------*----------*-14--17-15-14--16b-16b*---------|
Db:------*--------*--------*----------*----------*-14-15-17-*----------------------*---------|
Ab:-5-6-8*-7-8-10-*-9-10-12*-11-12-14-*-14-15-17-*----------*----------------------*---------|
Eb:------*--------*--------*----------*----------*----------*----------------------*---------|

  2 times 2 times  2 times 2 times    2 times
2times                           2 times

eb:13-14-16*-14-15-17-18-16-18-16-17-19-17-18-20-17-21-17-20b-20b-20b-20b-20b-20b-|
Bb:--------*----------------------------------------------------------------------|
Gb:--------*----------------------------------------------------------------------|
Db:--------*----------------------------------------------------------------------|
Ab:--------*----------------------------------------------------------------------|
Eb:--------*----------------------------------------------------------------------|

   2 times

eb:-22b-22b-22b-*-18b-----------15-12-13-15-13-12-------------------------------------*
Bb:-------------*------17b------------------------15-12-13-15-13-12-------------------*
Gb:-------------*---------------------------------------------------14-11-12-14-12-11-*
Db:-------------*---------------------------------------------------------------------*
Ab:-------------*-----------16\-------------------------------------------------------*
Eb:-------------*---------------------------------------------------------------------*

   2 times

eb:-----------------------------------------------*
Bb:-----------------------------------------------*
Gb:-----------------------------------------------*
Db:-14-11-12-14-12-11-----------------------------*
Ab:-------------------14-11-12-14-12-11---------2-*
Eb:--------------------------------------17\----0-*

--------------------------------------------------------------------------------
Comments