Slayer - Divine Intervention Chords & Tabs

 

Divine Intervention Chords & Tabs

Slayer Chords & Tabs

Version: 4 Type: Tab 0 ratings
1 star 2 stars 3 stars 4 stars 5 stars
comments

Divine Intervention Tab

Divine Intervention by Slayer
Tabbed by J. Schneider (Asmodaios666@aol.com)

.= Palm Mute

Intro
eb -------------------------------------------------------------...
Bb -------------------------------------------------------------...
Gb -------------------------------------------------------------...
Db --9--------9------9----9--9--9--9--9-9----12-------12-----12-...
Ab -10-------10-----10---10-10-10-10-10-9----13-------13-----13-...
Eb ----0-0-0----0-0-----------------------0-----0-0-0----0-0----...
       . . .    . .                       .     . . .    . .


eB -------------------------------------------------------------
Bb -------------------------------------------------------------
Gb -------------------------------------------------------------
Db -12-12-12-12-12-12-------------------------------------------
Ab -13-13-13-13-13-12-------------------------------------------
Eb -------------------0-----------------------------------------
                      .


Riff 1
eb -------------------------------------------------------------...
Bb -------------------------------------------------------------...
Gb -------------------------------------------------------------...
Db --------------------------------------9--9--9-9--------------...
Ab -------------------------------------10-10-10-9--------------...
Eb -0-0-0-0-0-0-0-0-0-0-0-0-0-0-0-0-0-0-------------------------...
    . . . . . . . . . . . . . . . . . .


eb -------------------------------------------------------------
Bb -------------------------------------------------------------
Gb -------------------------------------------------------------
Db -------------------------------------12-12-12-12-------------
Ab -------------------------------------13-13-13-12-------------
Eb -0-0-0-0-0-0-0-0-0-0-0-0-0-0-0-0-0-0-------------------------
    . . . . . . . . . . . . . . . . . .


[ Tab from: http://www.guitartabs.cc/tabs/s/slayer/divine_intervention_tab_ver_4.html ]
Riff 2  (Guitar 1  Fig 1)
eb -------------------------------------------------------------...
Bb -------------------------------------------------------------...
Gb -------------9----------------9------------------9-----------...
Db -----9---------10-----9---------10-9-----9---------10-----9--...
Ab ---7-------7--------7-------7----------7-------7--------7----...
Eb -0-----0-0--------0-----0-0----------0-----0-0--------0------...


eb --------------------------
Bb --------------------------
Gb ---------9----------------
Db -------8---10-9-----------
Ab -----7--------------------
Eb -0-0----------------------


Riff 2   (Guitar2  Fig 1)
eb ------------------------------
Bb ------------------------------
Gb ------------------------------
Db ------------------------------
Ab --2---2-2---2---2-2-2---------
Eb --0---0-0---0---0-0-0---------
     .   . .   .   . . .



Clean
eb -------------------------------
Bb -------------------------------
Gb ------7---------10--9----------
Db ---9--5----8-----8--7----------
Ab ---7-------6-------------------
Eb -0------0-----0----------------


 Awaken   in    a    web   like     hell...
eb -------------------------------------------------------
Bb -------------------------------------------------------
Gb -------------------------------------------------------
Db -------------------------------------------------------
Ab -------------------------------------2-2-2-2-----------
Eb -0-0-0-0-0-0-0-0-0-0-0-0-0-0-0-0-0-0-3-3-3-2-----------
    . . . . . . . . . . . . . . . . . .

 How    did    I    reach   this  place?
eb -------------------------------------------------------
Bb -------------------------------------------------------
Gb -------------------------------------------------------
Db -------------------------------------------------------
Ab -------------------------------------5-5-5-5-----------
Eb -0-0-0-0-0-0-0-0-0-0-0-0-0-0-0-0-0-0-6-6-6-5-----------
    . . . . . . . . . . . . . . . . . .
Comments