Slayer - Dittohead Chords & Tabs

 

Dittohead Chords & Tabs

Slayer Chords & Tabs

Version: 2 Type: Tab 0 ratings
1 star 2 stars 3 stars 4 stars 5 stars
comments

Dittohead Tab

   
Slayer
Dittohead

Tune Down 1/2 step
6=Eb  3=Gb
5=Ab  2=Bb
4=Db  1=Eb

p indicates a "pull"
palm mute with your discretion...
best to play alone with cd for tempo, etc.
these are just the basic riffs....if ya see anything screwy let me know........enjoy....

repeat2x
|----------------------------------|---------------------------------|
|----------------------------------|---------------------------------|
|----------------------------------|---------------------------------|
|----------------------------------|---------------------------------|
|----------------------------------|---------------------------------|
|--4-4-4-4-4-4-5-5-3-3-3-3-3-3-5-5-|-2-2-2-2-2-2-5-5-1-1-1-1-1-1-1-1-|

P.M....................................................
|--------------------------------|---------------------|
|--------------------------------|---------------------|
|--------------------------------|---------------------|
|--------------------------------|---------------------|
|---6--------7---5-----------7---|--4------------------|
|---4--------5---3-----------5---|--2------------19\---|

|-----------------------------------|-------------------------------------|
|-----------------------------------|-------------------------------------|
|-----------------------------------|-------------------------------------|
|-----------------------------------|-------------------------------------|
|-----------------------5--------4--|----------------------8---------6----|
|-0-0-0-0-0-0-0-0--0----3---0----2--|-0-0-0-0--0-0-0-0-0---6----0----4----|
P.M.............................................................
|-----------------------------------|-------------------------------------|
|-----------------------------------|-------------------------------------|
|-----------------------------------|-------------------------------------|
|-----------------------------------|-------------------------------------|
|----------------------5---------4--|-------------------------------------|
|-0-0-0-0-0-0-0-0-0----3----0----2--|-4-4-4-4-4-4-5-5-2--2-2--2-2-2-2-----|

P.M...........................  ...  ...........................
|--------------------------|---------------------------------|
|--------------------------|---------------------------------|
|--------------------------|---------------------------------|
|--------------------------|---------------------------------|
|--------------------------|--3---2--------------------------|
|-2--2--2--2--2---2--5--5--|--1---0---0---0---0---0---0---0--|

PM.........   ...    .....
|---------------------------------|---------------------------------|
|---------------------------------|---------------------------------|
|*--------------------------------|--------------------------------*|
|*--1-----------1---2-----------0-|--1-----------1---2-------------*|
|---1-----------1---2-----------0-|--1-----------1---2--------------|
|-------3---2-----------3---2-----|------3---2-----------3---2---1--|
[ Tab from: http://www.guitartabs.cc/tabs/s/slayer/dittohead_tab_ver_2.html ]
PM      .......         .......          .......     ............
|--------------------------------|-------------------------------|
|--------------------------------|-------------------------------|
|--------------------------------|-------------------------------|
|--2-----------2---3-----------1-|-2-----------2---3-------------|
|--2-----------2---3-----------1-|-2-----------2---3-------------|
|------4---3-----------4---3-----|-----4---3-----------4---3---2-|

PM    .......         .......         .......        ..........
|--------------------------------|--------------------------------|
|--------------------------------|--------------------------------|
|--2-----------2---3-----------1-|--2-----------2---3-----------1-|
|------4---3-----------4---3-----|------4---3-----------4---3-----|

PM    .......         .......
|--------------------------12-19-12-16-|--------------------------------------|
|--------------------------------------|--------------------------------------|
|--------------------------------------|--------------------------------------|
|--------------------------------------|--------------------------------------|
|--2-----------2---3-------------------|--------------------------------------|
|--2-----------2---3-------0---------2-|--2-----------2---3-------0---------2-|
|------4---3-----------4---------------|------4---3-----------4---------------|

Rhy Fig 3
PM  ...................              
|------------------------------|-------------------------------------|
|------------------------------|-------------------------------------|
|------------------------------|-------------------------------------|
|-3----------------------0---2-|--3-------3---5---6-------0--------2-|
|-3----------------------0---2-|--3-------3---5---6-------0--------2-|
|----0---0---0---0---0---------|------0---------------0--------------|

Lyrics:
This fucking country's lost it's grip
Sub-conscious hold begins to slip
The scales of justice tend to tip

The legal system has no spine
It's corroding from inside
Slap you hand you'll do no time

Reality on vacation
All across a blinded nation
Mentally under sedation

Anyone can be set free
On a technicality
Explain the law again to me!!!!!!!!!!!

Here in 1994
Things are different than before
Violence is what we adore

Invitation to the game
Guns and blades and media fame
Every day more of the same

Murder, mayhem, anarchy
Now are all done legally
Mastermind your killing spree

Unfaid of punishment
With a passive government
There's nothing for you to regret

Nothing to regret!!!!!!!!!!

Undisputing policy
No enforcing ministry
Gaping with judicial flaws
Watch a fading nation crawl

Clashing with the public's frame
I'm the one that's place in fame
Legislative sets the stage
Social slaves caught in a rage

Admistrative anarchy there's nothing
You can do to me
The world around you drifting to a
Continental tomb you see
Violence is my passion
I will never be contained
Living with aggression and its
Everlasting reign!!!!!!!!!!!!
Comments