Slayer - Disorder Chords & Tabs

 

Disorder Chords & Tabs

Slayer Chords & Tabs

Version: 2 Type: Tab 0 ratings
1 star 2 stars 3 stars 4 stars 5 stars
comments

Disorder Tab

   
Band:  Slayer and Ice T
Album: Judgement Night Soundtrack
Song:  Disorder(Exploited Covers)

Copyright (c)  (Epic) (1993)
Version 1.0 - (DATE)

Transcribed By: Steve
Email:          stephen.elvidge1@ntlworld.com


.  - palm mute           /  - slide up to
\  - slide down to       ~  - vibrato
h  - hammer on           b  - Bend
p  - pull off            Suffixes for bend
t  - tap                 f  - full bend    h - half bend
ph - pinched harmonic    q  - quarter bend t - tap bend
*  - see comment         ^  - Hold bend    r release bend
x  - Stuccatto           ~  - vibrato bend
,  - slight palm mute    () - ghost note, sustained note
"  - tremolo note        <> - Trill

Tunning Eb Ab Db Gb Bb Eb
 
 War

 Intro / Main Riff

 Drums on own.
 
  Guitar 1
   [----PM-----]   [--PM-]     ~~~
E[--------------------------------|
B[--------------------------------|
G[---------------9\---------------|
D[---------------9\--------5------|
A[-2-2-2-2-2-2-2-7\2-2-2-2---5-7--|
E[-0-0-0-0-0-0-0---0-0-0-0--------|
 [
 [ Guitar 2
 [ [----PM-----]   [--PM-]     ~~~                             
E[--------------------------------|
B[--------------------------------|
G[---------------9\---------------|
D[---------------9\---------------|
A[-2-2-2-2-2-2-2-7\2-2-2-2-5------|
E[-0-0-0-0-0-0-0---0-0-0-0---5-6--|

  Guitar 1
   [----PM-----]   [--PM-]     ~~~[----PM-----]   [--PM-]     ~~~
E[--------------------------------------------------------------|
B[--------------------------------------------------------------|
G[---------------9\-----------------------------9\--------------|
D[---------------9\--------5--------------------9\--------5-----|
A[-2-2-2-2-2-2-2-7\2-2-2-2---5-7--2-2-2-2-2-2-2-7\2-2-2-2---5-7-|
E[-0-0-0-0-0-0-0---0-0-0-0--------0-0-0-0-0-0-0---0-0-0-0-------|
 [
 [Guitar 2
 [ [----PM-----]   [--PM-]     ~~~[----PM-----]   [--PM-]     ~~~
E[--------------------------------------------------------------|
B[--------------------------------------------------------------|
G[-------------------------4--------------------9\--------7-----|
D[---------------9\----------5-5----------------9\----------7-9-|
A[-2-2-2-2-2-2-2---2-2-2-2--------2-2-2-2-2-2-2-7\2-2-2-2-------|
E[-0-0-0-0-0-0-0---0-0-0-0--------0-0-0-0-0-0-0---0-0-0-0-------|

 Verse Riff
  [----PM-----]   
E-------------------|
B-------------------|
G---------------9\--|
D---------------9\--|
A-2-2-2-2-2-2-2-7\--|
E-0-0-0-0-0-0-0-----| Rpt 16 X

 Chorus

E-----------------|
B-----------------|
G-5---\4---/7-----|
D-5---\4---/7-----|
A-3---\2---/5-----|
E-----------------| Rpt Verse Riff 2 X

 Rpt Chorus Riff
 Rpt Main Riff 2 X
 Rpt Verse
 Rpt Chorus

 Last time before guitar solo.
E-----------------|
B-----------------|
G-5---\4---/7-----|
D-5---\4---/7-----|
A-3---\2---/5-----|
E-3---\2---/5-----|

 Backing for guitar solo is verse riff 8 X
 Rpt Chorus once
 Rpt Verse using intro harmonys.
 Rpt Chorus

E------------------------|
B------------------------|
G-5---\4---/7------------|
D-5---\4---/7----2-2-2-2-|
A-3---\2---/5----2-2-2-2-|
E----------------0-0-0-0-|


 UK82

 Intro

E-----------------------------|
B-----------------------------|
G-5---------------------------|
D-5-7-7-7-7-7-7-5-7-7-7-7-7-7-|
A-0-0-0-0-0-0-0-0-0-0-0-0-0-0-|
E-----------------------------|Rpt 4 X

 Additional guitar
   Trem picked
E-------------------------------------------------------------------|
B-------------------------------------------------------------------|
G-------------------------------------------------------------------|
D-/101010101010101010101010101010101010101010101010101010101010101--|
A-------------------------------------------------------------------|
E-------------------------------------------------------------------|
[ Tab from: http://www.guitartabs.cc/tabs/s/slayer/disorder_tab_ver_2.html ]
  Guitar 1
E[---------------------------------------------------|
B[---------------------------------------------------|
G[---------------------------------------------------|
D[-5-5-5-555-5-5-5-555-------------------------------|
A[-3-3-3-333-3-3-3-333-7-7-\5-7-7-/10-7-7-\5-7-7-/9--|
E[---------------------5-5-\3-5-5-/8--5-5-\3-5-5-/7--|  
 [
 [Guitar 2
E[---------------------------------------------------|
B[---------------------------------------------------|
G[---------------------------------------------------|
D[-5-5-5-555-5-5-5-555-------------------------------|
A[-3-3-3-333-3-3-3-333-7-7--5-7-7--10-7-7--5-7-7--9--|
E[---------------------5-5--3-5-5--8--5-5--3-5-5--7--| Rpt 2 X

 Verse

 Guitar 1
  [--------PM--------]
E[---------------------------------------------------|
B[---------------------------------------------------|
G[---------------------------------------------------|
D[---------------------------------------------------|
A[-3333333333333333333-7-7-\5-7-7-/10-7-7-\5-7-7-/9--|
E[---------------------5-5-\3-5-5-/8--5-5-\3-5-5-/7--|
 [
 [Guitar 2
 [ [--------PM--------]
E[---------------------------------------------------|
B[---------------------------------------------------|
G[---------------------------------------------------|
D[---------------------------------------------------|
A[-3333333333333333333-7-7--5-7-7--10-7-7--5-7-7--9--|
E[---------------------5-5--3-5-5--8--5-5--3-5-5--7--| 

 Last time

 Guitar 1
  [--------PM--------]
E[---------------------------------------------------|
B[---------------------------------------------------|
G[---------------------------------------------------|
D[---------------------------------------------------|
A[-3333333333333333333-7-7-\5-7-7-/10-7-7-\5-7-7--5--|
E[---------------------5-5-\3-5-5-/8--5-5-\3-5-5--3--|
 [
 [Guitar 2
 [ [--------PM--------]
E[---------------------------------------------------|
B[---------------------------------------------------|
G[---------------------------------------------------|
D[---------------------------------------------------|
A[-3333333333333333333-7-7--5-7-7--10-7-7--5-7-7--5--|
E[---------------------5-5--3-5-5--8--5-5--3-5-5--3--|

                             Pick scrape
E------------------------------------------|
B------------------------------------------|
G------------------------------------------|
D-3-------(3)------5-------(5)--\-\-----5--|
A-3-------(3)------5-------(5)---\-\----5--|
E-1-------(1)------3-------(3)----\-\---3--|

 Rpt Intro
 Rpt Verse
 
 Backing for guitar solo
  [-------PM---------]
E-------------------------------------------------|
B-------------------------------------------------|
G-------------------------------------------------|
D-------------------------------------------------|
A----------------------5-5-\3/5-5-/8-5-5-\3/5-5/7-|
E-66666666666666666666-3-3-\1/3-3-/6-3-3-\1/3-3/5-| Rpt 4 X

 Disorder 

 Verse Riff

   [--PM---]  [--PM---]  [--PM---]
E----------------------------------------|
B----------------------------------------|
G----------------------------------------|
D----------------------------------------|
A-2---------3-----------5---------5/7-7--|
E-0-0-0-0-0-1-0-0-0-0-0-3-0-0-0-0-3/5-5--|Rpt 4 X

 Chorus

  [------PM--------]   [------PM-------]
E-------------------------------------------|
B-------------------------------------------|
G-------------------------------------------|
D-------------------------------------------|
A-4-4-4-4-4-4-4-4-4-6/7-4-4-4-4-4-4-4-4-7\6-|
E-2-2-2-2-2-2-2-2-2-4/5-2-2-2-2-2-2-2-2-5\4-| Rpt 2 X

 Post Chorus Riff

E---------------------------------|
B---------------------------------|
G---------------------------------|
D---------------------------------|
A-2-2-2-2-2-5/7-7-2-2-2-2-2-7\5-5-|
E-0-0-0-0-0-3/5-5-0-0-0-0-0-5\3-3-| Rpt 2 X

 Rpt Verse
 Rpt Chorus
 Rpt Post Chorus riff 4 X
 Ending on E chord



END
Comments