Slayer - Disciple Chords & Tabs

 

Disciple Chords & Tabs

Slayer Chords & Tabs

Version: 1 Type: Bass Tab 0 ratings
1 star 2 stars 3 stars 4 stars 5 stars
comments

Disciple Bass Tab

   
Slayer - Disciple

God Hates Us All



Tune down 1/2 step (Eb,Ab,Db,Gb)

Gb|-------------------|------------------||-------------------|------------------||
Db|-------------------|-----------9------||-9-----8-----7-----|------------------||
Ab|-------------------|-------------8-7--||---8-7---7-6---6-5-|------------------||
Eb|--3-0---3-6---5-0--|--000-000---------||-------------------|-3-2-0-2-3-4-3-0--||


Gb|------------------||------------------||------------------||------------------||
Db|------------------||------------------||------------------||------------------||
Ab|------------------||------------------||------------------||------------------||
Eb|-----000-000------||-111/4-0-0-0-0-0--||-3-2-0-2-3-4-3-0--||-----000-000------||


Gb|------------------||------------------||-------------------|------------------||
Db|-----------9------||------------------||-------------------|------------------||
Ab|-------------8-7--||------------------||-------------------|------------------||
Eb|--000-000---------||--111/444-000000--||-4--4---4--4--4--7-|---000000--7777---||

[ Tab from: http://www.guitartabs.cc/tabs/s/slayer/disciple_btab.html ]
Gb|-------------------|------------------||-------------------|
Db|-------------------|------------------||-------------------|
Ab|-------------------|------------------||-------------------|
Eb|--444\333-000-111--|---000000--7777---||--444\333-000-111--|


Gb|--------------------------------------||--------------------------------------||
Db|--------------------------------------||--------------------------------------||
Ab|--------------------------------------||--------------------------------------||
Eb|----000-333-222-000222333-777-666-----||-4000-4000-4\11111-4000-4000-4/77777--||


Gb|------------------||--------------------------------------||
Db|------------------||--------------------------------------||
Ab|------------------||--------------------------------------||
Eb|--111/444-000000--||----000-333-222-000222333-777-666-----||


Gb|-------------------|------------------------------------------------------------
Db|-------------------|------------------------------------------------------------
Ab|-------------------|------------------------------------------------------------
Eb|---0-3-2-023-7-6---|--1-1-1/4-4-4-0-0-0-0-0-0---1-1-1/4-4-4\3-3-3-0-0-0-0-0-0---


-------------------------------------------------------------------||
-------------------------------------------------------------------||
-------------------------------------------------------------------||
---1-1-1/4-4-4\3-3-3/4-4-4-0-0-0-0-0-0---1-1-1/4-4-4-0-0-0-0-0-0---||



weenoid@hotmail.com
Comments