Slayer - Die By The Sword Chords & Tabs

 

Die By The Sword Chords & Tabs

Slayer Chords & Tabs

Version: 2 Type: Bass Tab 0 ratings
1 star 2 stars 3 stars 4 stars 5 stars
comments

Die By The Sword Bass Tab

   
**********************************************************************
This tab file was downloaded from THE ABYSS - the complete Slayer site                      http://www.slaytanic.com/
**********************************************************************

                      Die by the Sword - Slayer
                      =========================

Tune down 1/2 step (Eb,Ab,Db,Gb)

 192 bpm
|-----------------|-----------------|-----------------|-----------------|
|-----------------|-----------------|-----------------|-----------------|
|-----------------|-----------------|-----------------|-----------------|
|-0---------------|-0-0-------------|-0-----0-0-------|-----------------|

|-----------------|-----------------|-----------------|-----------------||
|-----------------|-----------------|-----------------|-----------5-----||
|-------------4/5-|-------------8---|-------------4/5-|-----8-----------||
|-0-000-0-000-----|-0-000-0-000-----|-0-000-0-000-----|-0-0-----0-------||

 verse 1
|-----------------|-----------------|-----------------|-----------------|
|-----------------|-----------------|-----------------|-------------5---|
|-------------5---|-------------8---|-------------5---|-----------------|
|-0-000-0-000-----|-0-000-0-000-----|-0-000-0-000-----|-0-000-0-000-----|

|-----------------|-----------------|-----------------|-----------------|
|-----------------|-----------------|-----------------|-------------5---|
|-------------5---|-------------8---|-------------5---|-----------------|
|-0-000-0-000-----|-0-000-0-000-----|-0-000-0-000-----|-0-000-0-000-----|

|-----------------|-----------------|-----------------|-----------------|
|-------------8-7-|-------------8-7-|-------------8-7-|-----3---0-2-2---|
|-0-000-0-000-----|-0-000-0-000-----|-0-000-0-000-----|-0-0-------------|
|-----------------|-----------------|-----------------|-----------------|

|-----------------|-----------------|-----------------|-----------------||
|-------------8-7-|-------------8-7-|-------------8-7-|-----3---0-2-2---||
|-0-000-0-000-----|-0-000-0-000-----|-0-000-0-000-----|-0-0-------------||
|-----------------|-----------------|-----------------|-----------------||

 chorus
|-----------------|-----------------|-----------------|-----------------|
|-----------------|-----------------|-----------------|-----------------|
|-3-2-------------|-3-2-------------|-3-2-------------|-5---4-----------|
|-----3-2-5-3-2-0-|-----3-2-5-3-2-0-|-----3-2-5-3-2-0-|---------6---5---|

|-----------------|-----------------|-----------------|-----------------||
|-----------------|-----------------|-----------------|-----------------||
|-3-2-------------|-3-2-------------|-3-2-------------|-5---4-----------||
|-----3-2-5-3-2-0-|-----3-2-5-3-2-0-|-----3-2-5-3-2-0-|---------6---5---||

 verse 2
|-----------------|-----------------|-----------------|-----------------|
|-----------------|-----------------|-----------------|-------------5---|
|-------------5---|-------------8---|-------------5---|-----------------|
|-0-000-0-000-----|-0-000-0-000-----|-0-000-0-000-----|-0-000-0-000-----|

|-----------------|-----------------|-----------------|-----------------|
|-----------------|-----------------|-----------------|-------------5---|
|-------------5---|-------------8---|-------------5---|-----------------|
|-0-000-0-000-----|-0-000-0-000-----|-0-000-0-000-----|-0-000-0-000-----|

|-----------------|-----------------|-----------------|-----------------|
|-------------8-7-|-------------8-7-|-------------8-7-|-----3---0-2-2---|
|-0-000-0-000-----|-0-000-0-000-----|-0-000-0-000-----|-0-0-------------|
|-----------------|-----------------|-----------------|-----------------|

|-----------------|-----------------|-----------------|-----------------||
|-------------8-7-|-------------8-7-|-------------8-7-|-----3---0-2-2---||
|-0-000-0-000-----|-0-000-0-000-----|-0-000-0-000-----|-0-0-------------||
|-----------------|-----------------|-----------------|-----------------||

 chorus
|-----------------|-----------------|-----------------|-----------------|
|-----------------|-----------------|-----------------|-----------------|
|-3-2-------------|-3-2-------------|-3-2-------------|-5---4-----------|
|-----3-2-5-3-2-0-|-----3-2-5-3-2-0-|-----3-2-5-3-2-0-|---------6---5---|

|-----------------|-----------------|-----------------|-----------------|
|-----------------|-----------------|-----------------|-----------------|
|-3-2-------------|-3-2-------------|-3-2-------------|-5---4-----------|
|-----3-2-5-3-2-0-|-----3-2-5-3-2-0-|-----3-2-5-3-2-0-|---------6---5---|

|-----------------||
|-----------------||
|-3---2-----------||
|---------3---2---||

 144 bpm
|-----------------|-----------------|-----------------|-----------------|
|-----------------|-----------------|-----------------|-----------------|
|-----------------|-----------------|-----------------|-----------------|
|-0-0-0-0-0-0-0-0-|-0-0-0-0-0-0-0-0-|-0-0-0-0-0-0-0-0-|-0-0-0-0-0-0-0-0-|

|-----------------|-----------------|-----------------|-----------------|
|-----------------|-----------------|-----------------|-----------------|
|-----------------|-----------------|-----------------|-----------------|
|-0-0-0-0-0-0-0-0-|-0-0-0-0-0-0-0-0-|-0-0-0-0-0-0-0-0-|-0-0-0-0-0-0-0-0-|

|-----------------|-----------------|-----------------|-----------------||
|-----------------|-----------------|-----------------|-----------------||
|-----------------|-----------------|-----------------|-----------------||
|-0-0-0-0-0-0-0-0-|-0-0-0-0-0-0-0-0-|-0-0-0-0-0-0-0-0-|-0-0-0-0-0-0-0-0-||

 bridge
|-----------------|-----------------|-----------------|-----------------|
|-----------------|-----------------|-----------------|-----------------|
|-------------2---|(2)--2---2-1-----|-----------------|---------2---8---|
|-0-0-0-3-0-0-----|-----------------|-0-0-0-3-0-0-1---|-1---0-0---------|
[ Tab from: http://www.guitartabs.cc/tabs/s/slayer/die_by_the_sword_btab_ver_2.html ]
|-----------------|-----------------|-----------------|-----------------|
|-----------------|-----------------|-----------------|-----------------|
|-------------2---|(2)--2---2-1-----|-----------------|---------2---8---|
|-0-0-0-3-0-0-----|-----------------|-0-0-0-3-0-0-1---|-1---0-0---------|

|-----------------|-----------------|-----------------|-----------------|
|-----------------|-----------------|-----------------|-----------------|
|-------------2---|(2)--2---2-1-----|-----------------|---------2---8---|
|-0-0-0-3-0-0-----|-----------------|-0-0-0-3-0-0-1---|-1---0-0---------|

|-----------------|-----------------|-----------------|-----------------||
|-----------------|-----------------|-----------------|-----------------||
|-------------2---|(2)--2---2-1-----|-----------------|---------2---8---||
|-0-0-0-3-0-0-----|-----------------|-0-0-0-3-0-0-1---|-1---0-0---------||

 6/4
|-------------------------|-------------------------|
|-------------------------|-------------------------|
|-------------------------|-------------------------|
|-0-0-0-0-0-0-0-0-0-0-0-0-|-7-7-7-7-7-7-7-7-7-7-7-7-|

|-------------------------|-------------------------|
|-------------------------|-------------------------|
|-------------------------|-------------------------|
|-6-6-6-6-6-6-6-6-6-6-6-6-|-1-1-1-1-1-1-1-1-1-1-1-1-|

|-------------------------|-------------------------|
|-------------------------|-------------------------|
|-------------------------|-------------------------|
|-2-2-2-2-2-2-2-2-2-2-2-2-|-1-1-1-1-1-1-1-1-1-1-1-1-|

|-------------------------|-------------------------|
|-------------------------|-------------------------|
|-------------------------|-------------------------|
|-3-3-3-3-3-3-3-3-3-3-3-3-|-0-0-0-0-0-0-0-0-0-0-0-0-|

|-------------------------|-------------------------|
|-------------------------|-------------------------|
|-------------------------|-------------------------|
|-0-0-0-0-0-0-0-0-0-0-0-0-|-0-0-0-0-0-0-0-0-0-0-0-0-|

|-------------------------|-------------------------||
|-------------------------|-------------------------||
|-------------------------|-------------------------||
|-0-0-0-0-0-0-0-0-0-0-0-0-|-0-0-0-0-0-0-0-0-0-0-0-0-||

 guitar solo
 tempo I
|-----------------|-----------------|-----------------|-----------------|
|-----------------|-----------------|-----------------|-----------------|
|-------------8-7-|-------------8-7-|-------------8-7-|-----3-----2-----|
|-0-000-0-000-----|-0-000-0-000-----|-0-000-0-000-----|-0-0-----0-------|

|-----------------|-----------------|-----------------|-----------------|
|-----------------|-----------------|-----------------|-----------------|
|-------------8-7-|-------------8-7-|-------------8-7-|-----3-----2-----|
|-0-000-0-000-----|-0-000-0-000-----|-0-000-0-000-----|-0-0-----0-------|

|-----------------|-----------------|-----------------|-----------------|
|-----------------|-----------------|-----------------|-----------------|
|-------------8-7-|-------------8-7-|-------------8-7-|-----3-----2-----|
|-0-000-0-000-----|-0-000-0-000-----|-0-000-0-000-----|-0-0-----0-------|

|-----------------|-----------------|-----------------|-----------------||
|-----------------|-----------------|-----------------|-----------------||
|-------------8-7-|-------------8-7-|-------------8-7-|-----3-----2-----||
|-0-000-0-000-----|-0-000-0-000-----|-0-000-0-000-----|-0-0-----0-------||

|-----------------|-----------------|-----------------|-----------------|
|-----------------|-5---------------|-----------------|-----------------|
|-7---------------|-----------------|-9---------------|-----------------|
|-----------------|-----------------|-----------------|-8-------7-------|

|-----------------|-----------------|-----------------|-----------------|
|-----------------|-----------------|-----------------|-----------------|
|-----------------|-----------------|-----------------|-3-------2-------|
|-0---------------|-3---------------|-2---------------|-----------------|

|-----------------|-----------------|-----------------|-----------------|
|-----------------|-5---------------|-4---------------|-----------------|
|-----------------|-----------------|-----------------|-3-------2-------|
|-0---------------|-----------------|-----------------|-----------------|

|-----------------|-----------------|-----------------|-----------------||
|-----------------|-----------------|-4---------------|-----------------||
|-----------------|-----------------|-----------------|-3-------2-------||
|-0---------------|-3---------------|-----------------|-----------------||

|-----------------|-----------------|-----------------|-----------------|
|-----------------|-----------------|-----------------|-----------5-----|
|-------------4/5-|-------------8---|-------------4/5-|-----8-----------|
|-0-000-0-000-----|-0-000-0-000-----|-0-000-0-000-----|-0-0-----0-------|

|-----------------|-----------------|-----------------|-----------------||
|-----------------|-----------------|-----------------|-----------5-----||
|-------------4/5-|-------------8---|-------------4/5-|-----8-----------||
|-0-000-0-000-----|-0-000-0-000-----|-0-000-0-000-----|-0-0-----0-------||

 chorus
|-----------------|-----------------|-----------------|-----------------|
|-----------------|-----------------|-----------------|-----------------|
|-3-2-------------|-3-2-------------|-3-2-------------|-5---4-----------|
|-----3-2-5-3-2-0-|-----3-2-5-3-2-0-|-----3-2-5-3-2-0-|---------6---5---|

|-----------------|-----------------|-----------------|-----------------|
|-----------------|-----------------|-----------------|-----------------|
|-3-2-------------|-3-2-------------|-3-2-------------|-5---4-----------|
|-----3-2-5-3-2-0-|-----3-2-5-3-2-0-|-----3-2-5-3-2-0-|---------6---5---|

|-----------------|-----------------|-----------------|-----------------||
|-----------------|-----------------|-----------------|-----------------||
|-3---2-----------|-5---4-----------|-3---2-----------|-----------------||
|---------3---2---|---------6---5---|---------3---2---|-0---------------||

Comments