Slayer - Desire Chords & Tabs

 

Desire Chords & Tabs

Slayer Chords & Tabs

Version: 3 Type: Tab 0 ratings
1 star 2 stars 3 stars 4 stars 5 stars
comments

Desire Tab

DESIRE
ALBUM: DIABOLUS IN MUSICA
SLAYER
TABBED BY: RUDY GUZMAN

DROPPED D TUNING

              play 4 times                       play 4 times
dist.
|---------10-------------11--|-----------------------------|--------------------|
|------8------8-------8------|---3------2------6-------9---|-----3--------4-----|
|----------------------------|-0---0--0---0--0---0--0----0-|--0-----0--0--------|
|----------------------------|-----------------------------|--------------------|
|-10-------------10----------|-----------------------------|--------------------|
|----------------------------|-----------------------------|--------------------|

  dist.                          guitar 1
eb:------------------------------|----------------------------------------------------|
Bb:----3------2------6------9----|----------------------------------------------------|
Gb:-0----0--0---0--0---0--0---0--|----------------------------------------------------|
Db:------------------------------|----------------------------------------------------|
Ab:------------------------------|-0-------0---------0-----------0-0-0--6-6--0--(0)---|
 D:------------------------------|-0--0-0--0--0-0-0--0--0-0-0-0--0-0-0--6-6--0--(0)---|

                                  pm . .  .  . . .     . . . .  . . .

                                 guitar 2

eb:---------------------------------------------|
Bb:---------------------------------------------|
Gb:---------------------------------------------|
Db:---------------------------------------------|
Ab:-0-------0---------0-----------0-0-0--6-6--0-|
D:-0--0-0--0--0-0-0--0--0-0-0-0--0-0-0--6-6--0-|
                                 pm.  . .  .  . . .  .  . . . .  . . .



 no one could ever doubt my rapture..
                               play 2 times
:------------------------------------------------|
:------------------------------------------------|
:------------------------------------------------|
:------------------------------------------------|
:--5--------3--6--5----5---------1/--8--7--------|
:-----7--6----------------6--7---1/--8--7--------|


 no one will ever cross my love             deadly consequence will rise
above
:-------------------------------------------|-----------------------------------------|
:-------------------------------------------|-----------1--4--3-----------------------|
:-------------------------------------------|-----------------------------------------|
:-----------3--6--5-------------------------|-----------------------------------------|
:--5-------------------5---------1/--8--7---|-5-------------------5----------1/--8--7-|
:-----7--6----------------6--7---1/--8--7---|-----7--6----------------6--7---1/--8--7-|

                                 lying all alone....
                                               play 4 times
:------------------------------|--------------------------------|
:------------------------------|----3------2-------6------9-----|
:------------------------------|--0---0--0---0--0----0--0---0---|
:------------------------------|--------------------------------|
:--5-5-5--4-4-4--6-6-6--9-9-9--|--------------------------------|
:--5-5-5--4-4-4--6-6-6--9-9-9--|--------------------------------|


  desire i would kill for you...           true and pure the
intensity...
              play 2 times
:------------------------------------------|----------------------------|
:------------------------------------------|----------------------------|
:------------------------------------------|----------------------------|
:------------------------------------------|----------3--6--5-----------|
:--5--------3--6--5---5---------1/--8--7---|-5------------------5-------|
:-----7--6---------------6--7---1/--8--7---|----7--6---------------6--7-|



            every time death is next to me
:-----------|---------------------------|-------------|
:-----------|---------1--4--3-----------|-------------|
:-----------|---------------------------|-------------|
:-----------|---------------------------|-------------|
:-1/--8--7--|-5-----------------5-------|--1/--8--7---|
:-1/--8--7--|----7--6--------------6--7-|--1/--8--7---|


                                lying all alone....
                                repeat 4 times
:------------------------------|-----------------------------|
:----3------2------6------9----|---3------2------6-----9-----|
:--0---0--0---0--0---0--0---0--|-0---0--0---0--0---0--0--0---|
:------------------------------|-----------------------------|
:------------------------------|-----------------------------|
:------------------------------|-----------------------------|


solo 1
:-1/10~~~~--10h11p10----------------------------------------------|
:---------------------11p10---------------------------------------|
:------------------------------9-7h8h9p8p7------------------------|
:-------------------------------------------9p8p7-----------------|
:--------------------------------------------------10--9-10-9~~~--|
:-----------------------------------------------------------------|

                                                         bend slowly
:--------------------------------------------------------------|
:-----------------------------------2h3p2---3---5---7----------|
:-----------------11------------2h3---------------------9b~~~--|
:-----------12-11----------5-----------------------------------|
:-/11-12-11----------------------------------------------------|
:--------------------------------------------------------------|



:-9p7--------9p7--------------------------------|
:-----9p7--------8p10----------9--12--11-12~~~--|
:---------9-----------10---11-------------------|
:-----------------------------------------------|
:-----------------------------------------------|
:-----------------------------------------------|



     4 times
:----------------*--------------------------------------|
:------14h16p14--*--------------------------------------|
:--15------------*---13\--------------------------------|
:----------------*--------------------------------------|
:----------------*--------------------------------------|
:----------------*--------------------------------------|



                                  play 2 times
e:------------------------------------------------------|
B:------------------------------------------------------|
G:------------------------------------------------------|
D:------------------------------------------------------|
A:-0---------0---------0-----------0-0-0--6-6-0---------|
D:-0--0-0-0--0--0-0-0--0--0-0-0-0--0-0-0--6-6-0---------|
  pm  . . .  .  . . .  .  . . . .  . . .

solo 2
    bar barbarbar  bar      bar             bar
:----------------------------------------3AH-----------|
:--13--13-13-13--------1/6-6------x\-----3AH-----------|
:--12--12-12-12-------------------x\-------------------|
:------------------------------------------------------|
:------------------4-----------------------------------|
:------------------------------------------------------|

  bar---------------------------------
:------------------------------------------------------|
:------------------------------------------------------|
:-0h2p0h2p0h2p0h2p0h2p0h2p0--etc-----------------------|
:------------------------------------------------------|
:------------------------------------------------------|
:------------------------------------------------------|

   pick slide  vib
:------------17----17\---19b--19b-19b-19b-19b-19b-19b-19\---|
:------------20----20\---22b--22b-22b-22b-22b-22b-22b-22\---|
:--x/-------------------------------------------------------|
:--x/-------------------------------------------------------|
:-----------------------------------------------------------|
:-----------------------------------------------------------|


 anxiously feeling grotesque.....
                                 play 8 times
:----------------------------------------------|
:----------------------------------------------|
:----------------------------------------------|
:----------------------------------------------|
:-0---------0---------0---------0-0-0--6-0-----|
:-0--0-0-0--0--0-0-0--0-0-0-0-0-0-0-0--6-0-----|
  pm  . . .  .  . . .  . . . . . . . .


:------------------------------|----------------|
:------------------------------|----------------|
:------------------------------|----------------|
:------------------------------|----------------|
:-5-5-5-4-4-4-6-6-6-9-9-9------|--5---4---6---9-|
:-5-5-5-4-4-4-6-6-6-9-9-9------|--5---4---6---9-|



find yourself all alone and dead....
              repeat 4 times
:-------------------------------|----------------|
:---3------2------6------9------|------3------4--|
:-0---0--0---0--0---0--0---0----|----0---0--0----|
:-------------------------------|----------------|
:-------------------------------|----------------|
:-------------------------------|----------------|


---this is something extra---


divine intervention (solo)


Album: divine intervention


slayer


tabbed by: Rudy Guzman

[ Tab from: http://www.guitartabs.cc/tabs/s/slayer/desire_tab_ver_3.html ]
solo 1
eb:--------------------------------------------3-6-4-3----------------------------------|
Bb:----------------------------------3-4-6-4-6----------6-4-3---------------------------|
Gb:-----------------------2-3-2-3-5----------------------------5-3-2--------------5~~~--|
Db:-------------2-3-2-3-5---------------------------------------------5-3-2~~~----------|
Ab:-2~~~--2-3-5-------------------------------------------------------------------------|
Eb:-------------------------------------------------------------------------------------|

eb:----------------------------------------------------------------------|
Bb:-11-11-10-11--12-12-11-12--14-14-12-14--16-16-14-16-16-17---17b--17\--|
Gb:------------------------------------------------------------15b--15\--|
Db:----------------------------------------------------------------------|
Ab:----------------------------------------------------------------------|
Eb:----------------------------------------------------------------------|

solo 2
eb:------------------------------------------------------9-10-12-10-9-----------------|
Bb:------------------------------------12~~~--12b~~~~~----------------12-10-9---------|
Gb:--------------------------12-13-15-----------------------------------------12-10-9-|
Db:-----------------12-13-15----------------------------------------------------------|
Ab:-7--------12-15--------------------------------------------------------------------|
Eb:-9---7~~~--------------------------------------------------------------------------|
            pm. .   .   .  .

eb:-----------------------------------------------------------------|
Bb:--------------------------------------9AH-----------------9AH----|
Gb:----------------------------------------------------9------------|
Db:-11-9-8-----------------------------------------------8b---------|
Ab:--------7-8-7-8-10-8-7------------7b-------------7---------------|
Eb:-----------------------10-8-7b~~~---------7-8-10-----------------|


eb:-----------------------------12------------------------12---|
Bb:----------------------12~~~------12b-12b-12b--12-13-15------|
Gb:---------9~~~-9-10-12---------------------------------------|
Db:-9-10-12----------------------------------------------------|
Ab:------------------------------------------------------------|
Eb:------------------------------------------------------------|

    3 times
eb:----19-22-19-|---------------------------------------------|
Bb:-21----------|-21-19-18------------------------------------|
Gb:-------------|----------21-19-18---------------------------|
Db:-------------|-------------------20-18-17------------------|
Ab:-------------|----------------------------20-18-17---------|
Eb:-------------|-------------------------------------20-17\--|


solo 3
eb:12-13-12-13-12-13-15-13-12----------------------------------------
Bb:---------------------------15-13-12-13-12-15-13-12----------------
Gb:---------------------------------------------------15-13-12-13-12-
Db:------------------------------------------------------------------
Ab:------------------------------------------------------------------
Eb:------------------------------------------------------------------

 ------------------------|
 ------------------------|
 -11-12-11-12-11-14-12-11|
 ------------------------|
 ------------------------|
 ------------------------|

eb:----------------------------------------------------------------------|
Bb:----------------------------------------------------------------------|
Gb:---------11-----------------------------------------------------------|
Db:14-12-14----14-12-11-12-11-12-14-12-11---------11---------------------|
Ab:--------------------------------------14-12-14----14-12-11-12-11-12---|
Eb:----------------------------------------------------------------------|

                           2 times          bend full--------
eb:----------------------|-------------|--------------------------|
Bb:----------------------|-------------|--7-8-10-10b-10-10-10-10\-|
Gb:----------------------|-7-8-9-7-8-9-|--------------------------|
Db:-----------7-8-7-8-10-|-------------|--------------------------|
Ab:-8-7-8-10-------------|-------------|--------------------------|
Eb:----------------------|-------------|--------------------------|


      bar                                    bar
eb:-----------------------------------------------------------------------------------|
Bb:-----------------------------------------------------------------------------------|
Gb:-2~~~--2-3-2-3-5-2-3---------------------------------------------------------------|
Db:---------------------5-3-2-3-2-5-3-2-----------------------------------------------|
Ab:-------------------------------------5-3-2b----------------------12-13-14-12-13-14-|
Eb:-----------------------------------------------12-13-15-12-13-15-------------------|


eb:---------------------------------------------------------------------------------|
Bb:------------------------------------12-13-15-12-13-15----------12-13-15-12-13-15-|
Gb:------------------12-13-15-12-13-15-------------------15-13-12-------------------|
Db:12-13-14-12-13-14----------------------------------------------------------------|
Ab:---------------------------------------------------------------------------------|
Eb:---------------------------------------------------------------------------------|


eb:-12-13-15-------17b---22b-|
Bb:----------17b-------------|
Gb:--------------------------|
Db:--------------------------|
Ab:--------------------------|
Eb:--------------------------|

solo 4
eb:-21b-21b-21b-21-21-21-19-19-22-22-21-21-19--------------------------------------------|
Bb:-------------------------------------------22-19-21-22-21-19--------------------------|
Gb:-------------------------------------------------------------22-21-19-----------------|
Db:----------------------------------------------------------------------21b-21b-21b-21b-|
Ab:--------------------------------------------------------------------------------------|
Eb:--------------------------------------------------------------------------------------|


eb-------------------------------------------------------------------------
Bb-------------------------------------------------------------------------
Gb21\-21b-21b-21b-21b-21\--------------------------------------------------
Db-------------------------------------------------------12-13-15-12-13-15-
Ab------------------------12-12-13-13-15-13-12-15-13-12--------------------
Eb-------------------------------------------------------------------------


 ------------------|
 ------------------|
 -12-13-15-12-13-15|
 ------------------|
 ------------------|
 ------------------|


eb:----------------------------------------------|
Bb:12-13-15-13-12--------------------------------|
Gb:---------------15b-14AH~~~~-15~~~---(15)------|
Db:----------------------------------------------|
Ab:----------------------------------------------|
Eb:-----------------------------------------19\--|


solo 5
eb:------*--------*--------*----------*----------*----------*----------------------*
Bb:------*--------*--------*----------*----------*----------*---------------17b----*
Gb:------*--------*--------*----------*----------*----------*-14--17-15-14--16b-16b*
Db:------*--------*--------*----------*----------*-14-15-17-*----------------------*
Ab:-5-6-8*-7-8-10-*-9-10-12*-11-12-14-*-14-15-17-*----------*----------------------*
Eb:------*--------*--------*----------*----------*----------*----------------------*

  2 times 2 times  2 times 2 times    2 times

 *12-13-15-|
 *---------|
 *---------|
 *---------|
 *---------|
 *---------|


2times                           2 times

eb:13-14-16*-14-15-17-18-16-18-16-17-19-17-18-20-17-21-17-20b-20b-20b-20b-20b-20b-|
Bb:--------*----------------------------------------------------------------------|
Gb:--------*----------------------------------------------------------------------|
Db:--------*----------------------------------------------------------------------|
Ab:--------*----------------------------------------------------------------------|
Eb:--------*----------------------------------------------------------------------|

   2 times

eb:-22b-22b-22b-*-18b-----------15-12-13-15-13-12-------------------------------------*
Bb:-------------*------17b------------------------15-12-13-15-13-12-------------------*
Gb:-------------*---------------------------------------------------14-11-12-14-12-11-*
Db:-------------*---------------------------------------------------------------------*
Ab:-------------*-----------16\-------------------------------------------------------*
Eb:-------------*---------------------------------------------------------------------*

   2 times

eb:-----------------------------------------------*
Bb:-----------------------------------------------*
Gb:-----------------------------------------------*
Db:-14-11-12-14-12-11-----------------------------*
Ab:-------------------14-11-12-14-12-11---------2-*
Eb:--------------------------------------17\----0-*
Comments