Slayer - Dead Skin Mask Chords & Tabs

 

Dead Skin Mask Chords & Tabs

Slayer Chords & Tabs

Version: 3 Type: Tab 1 rating
1 star 2 stars 3 stars 4 stars 5 stars
comments

Dead Skin Mask Tab

   
#----------------------------------PLEASE NOTE---------------------------------#
#This file is the author's own work and represents their interpretation of the #
#song. You may only use this file for private study, scholarship, or research. #
#------------------------------------------------------------------------------#

Dead Skin Mask
by Slayer
from "Seasons in the Abyss"


Tune Down 1/2 step
6=Eb  3=Gb
5=Ab  2=Bb
4=Db  1=Eb
Tempo: moderately slow (109 bpm)
[ Tab from: http://www.guitartabs.cc/tabs/s/slayer/dead_skin_mask_tab_ver_3.html ]
INTRO:
RIFF 1:
Gtr.1Eb|----------------------------------|---------------------------------|
     Bb|----------------------------------|---------------------------------|
     Gb|----------------------------------|-----------------------------9---|
     Db|----------9---10----------9---10--|---------9---10------9---10------|
     Ab|------7---------------8-----------|-----7-----------8---------------|
     Eb|--0---------------0---------------|-0-------------------------------|
          .               .                 .
 
Gtr.1Eb|----------------------------------|---------------------------------|
     Bb|----------------------------------|-------------------------- sl ---|
     Gb|-(9)--------------- feedback -----|-(9)~~~~~~~~~~~~~~~~----(9)-\----|
     Db|----------------------------------|---------------------------------|
     Ab|----------------------------------|---------------------------------|
     Eb|----------------------------------|---------------------------------|
       |                                  |                                 |
Gtr.2Eb|----------------------------------|---------------------------------|
     Bb|----------------------------------|---------------------------------|
     Gb|----------------------------------|---------------------------------|
     Db|----------9---10----------9---10--|---------9---10------9---10--9---|
     Ab|------7---------------8-----------|-----7-----------8---------------|
     Eb|--0---------------0---------------|-0-------------------------------|
          .               .                 .
 
Gtr.1Eb|----------------------------------|---------------------------------|
     Bb|----------------------------------|---------------------------------|
     Gb|----------------------------------|-----------------------------9---|
     Db|----------9---10----------9---10--|---------9---10------9---10------|
     Ab|-----/7---------------8-----------|-----7-----------8---------------|
     Eb|--0---------------0---------------|-0-------------------------------|
       |  .               .               | .                               |
Gtr.2Eb|----------------------------------|---------------------------------|
     Bb|----------------------------------|---------------------------------|
     Gb|----------------------------------|---------------------------------|
     Db|--(9)~~~~~~~~~~~~~~~~~~~~~~~~~~~~-|-(9)~~~~~~~~~~~~~~~~~~~~~~~~~~~~-|
     Ab|----------------------------------|---------------------------------|
     Eb|----------------------------------|---------------------------------|
 
Gtr.1Eb|----------------------------------|---------------------------------|
     Bb|----------------------------------|---------------------------------|
     Gb|-(9)--------------- feedback -----|-(9)~~~~~~~~~~~~~~~~~~~~~-\\\\\--|
     Db|----------------------------------|----------------------- tremolo -|
     Ab|----------------------------------|------------------------- bar ---|
     Eb|----------------------------------|---------------------------------|
       |                                  |                                 |
Gtr.2Eb|----------------------------------|---------------------------------|
     Bb|----------------------------------|---------------------------------|
     Gb|----------------------------------|---------------------------------|
     Db|----------9---10----------9---10--|---------9---10------9---10--9---|
     Ab|------7---------------8-----------|-----7-----------8---------------|
     Eb|--0---------------0---------------|-0-------------------------------|
          .               .                 .
RIFF 2:
  (Spoken:)   
Gtr.1Eb|----------------------------------|--------------------------- A.H.-|
Gtr.2Bb|----------------------------------|---------------------------------|
     Gb|----------------------------------|----------------------------?8>~~|
     Db|----------9---10----------9---10--|---------9---10------9---10------|
     Ab|------7---------------8-----------|-----7-----------8---------------|
     Eb|--0---------------0---------------|-0-------------------------------|
          .               .                 .
       
Gtr.1Eb|----------------------------------|---------------------------------|
Gtr.2Bb|----------------------------------|---------------------------------|
     Gb|----------------------------------|-----------------------------7~~-|
     Db|----------9---10----------9---10--|---------9---10------9---10------|
     Ab|------7---------------8-----------|-----7-----------8---------------|
     Eb|--0---------------0---------------|-0-------------------------------|
          .               .                 .
       
Gtr.1Eb|----------------------------------|--------------------------- A.H.-|
Gtr.2Bb|----------------------------------|---------------------------------|
     Gb|----------------------------------|----------------------------?8>~~|
     Db|----------9---10----------9---10--|---------9---10------9---10------|
     Ab|------7---------------8-----------|-----7-----------8---------------|
     Eb|--0---------------0---------------|-0-------------------------------|
          .               .                 .
        
Gtr.1Eb|----------------------------------|---------------------------------|
Gtr.2Bb|----------------------------------|---------------------------------|
     Gb|----------------------------------|---------------------R-----------|
     Db|----------9---10----------9---10--|---------9---10--7-8-E-----------|
     Ab|------7---------------8-----------|-----7-----------7-8-S-----------|
     Eb|--0---------------0---------------|-0---------------5-6-T---3-1-0-1-|
          .               .                 .                       . . . .
RIFF 2A:
Gtr.1Eb|----------------------------------|---------------------------------|
Gtr.2Bb|----------------------------------|---------------------------------|
     Gb|----------------------------------|-----------------------------8~~-|
     Db|----------9---10----------9---10--|---------9---10------9---10------|
     Ab|-----/7---------------8-----------|-----7-----------8---------------|
     Eb|--0---------------0---------------|-0-------------------------------|
          .               .                 .
Gtr.1Eb|----------------------------------|---------------------------------|
Gtr.2Bb|----------------------------------|---------------------------------|
     Gb|----------------------------------|-----------------------------7~~-|
     Db|----------9---10----------9---10--|---------9---10------9---10------|
     Ab|------7---------------8-----------|-----7-----------8---------------|
     Eb|--0---------------0---------------|-0-------------------------------|
          .               .                 .
Gtr.1Eb|----------------------------------|---------------------------------|
Gtr.2Bb|----------------------------------|---------------------------------|
     Gb|----------------------------------|-----------------------------8-~~|
     Db|----------9---10----------9---10--|---------9---10------9---10------|
     Ab|------7---------------8-----------|-----7-----------8---------------|
     Eb|--0---------------0---------------|-0-------------------------------|
          .               .                 .
Gtr.1Eb|----------------------------------|---------------------------------|
Gtr.2Bb|----------------------------------|---------------------------------|
     Gb|----------------------------------|---------------------R-----------|
     Db|----------9---10----------9---10--|---------9---10--7-8-E-----------|
     Ab|------7---------------8-----------|-----7-----------7-8-S-----------|
     Eb|--0---------------0---------------|-0---------------5-6-T---3-1-0-1-|
          .               .                 .                       . . . .
RIFF 3: (play 4 times)
Gtr. Eb||---------------------------------|---------------------------------||
     Bb||---------------------------------|---------------------------------||
     Gb||---------------------------------|---------------------sl----------||
     Db||---------1---------------2-------|---------3-------7-8-\-----------||
     Ab||-2-------1---------------2-------|---------3-------7-8-\-----------||
     Eb||-0---0-0-----0-0-3-1-0-1-----0-0-|-3-1-0-1-----0-0-5-6-\---3-1-0-1-||
              . .     . . . . . .     . .   . . . .     . .         . . . .
VERSE 1:
            
Gtr. Eb|----------------------------------|---------------------------------|
     Bb|----------------------------------|---------------------------------|
     Gb|----------------------------------|---------------------------------|
     Db|----------------------------------|---------------------------------|
     Ab|--2-------------------------------|-(2)-----------------------------|
     Eb|--0-------------------------------|-(0)---------------------3-1-0-1-|
                                                                    . . . .
        
Gtr. Eb|----------------------------------|---------------------------------|
     Bb|----------------------------------|---------------------------------|
     Gb|----------------------------------|---------------------sl----------|
     Db|----------------------------------|-----------------7-8-\-----------|
     Ab|--2-------------------------------|-(2)-------------7-8-\-----------|
     Eb|--0-------------------------------|-(0)-------------5-6-\---3-1-0-1-|
                                                                    . . . .
          
Gtr. Eb|----------------------------------|---------------------------------|
     Bb|----------------------------------|---------------------------------|
     Gb|----------------------------------|---------------------------------|
     Db|----------------------------------|---------------------------------|
     Ab|--2-------------------------------|-(2)-----------------------------|
     Eb|--0-------------------------------|-(0)---------------------3-1-0-1-|
                                                                    . . . .
          
Gtr. Eb|----------------------------------|---------------------------------|
     Bb|----------------------------------|---------------------------------|
     Gb|----------------------------------|---------------------sl----------|
     Db|----------------------------------|-----------------7-8-\-----------|
     Ab|--2-------------------------------|-(2)-------------7-8-\-----------|
     Eb|--0-------------------------------|-(0)-------------5-6-\---3-1-0-1-|
                                                                    . . . .
CHORUS:
        
Gtr.1Eb|----------------------------------|---------------------------------|
Gtr.2Bb|----------------------------------|---------------------------------|
     Gb|----------------------------------|-----------------------------8~~-|
     Db|----------9---10----------9---10--|---------9---10------9---10------|
     Ab|-----/7---------------8-----------|-----7-----------8---------------|
     Eb|--0---------------0---------------|-0-------------------------------|
          .               .                 .
     
Gtr.1Eb|----------------------------------|---------------------------------|
Gtr.2Bb|----------------------------------|---------------------------------|
     Gb|----------------------------------|-----------------------------7~~-|
     Db|----------9---10----------9---10--|---------9---10------9---10------|
     Ab|------7---------------8-----------|-----7-----------8---------------|
     Eb|--0---------------0---------------|-0-------------------------------|
          .               .                 .
     
Gtr.1Eb|----------------------------------|---------------------------------|
Gtr.2Bb|----------------------------------|---------------------------------|
     Gb|----------------------------------|-----------------------------8-~~|
     Db|----------9---10----------9---10--|---------9---10------9---10------|
     Ab|------7---------------8-----------|-----7-----------8---------------|
     Eb|--0---------------0---------------|-0-------------------------------|
          .               .                 .
   
Gtr.1Eb|----------------------------------|---------------------------------|
Gtr.2Bb|----------------------------------|---------------------------------|
     Gb|----------------------------------|---------------------R-----------|
     Db|----------9---10----------9---10--|---------9---10--7-8-E-----------|
     Ab|------7---------------8-----------|-----7-----------7-8-S-----------|
     Eb|--0---------------0---------------|-0---------------5-6-T---3-1-0-1-|
          .               .                 .                       . . . .
VERSE 2
BRIDGE:
Gtr.1Eb|----------------------------------|---------------------------------|
Gtr.2Bb|----------------------------------|---------------------------------|
     Gb|--------------------------8-------|-----------------sl--------------|
     Db|------------9---8~~~~~------9-----|-----------9---8-\---3-----5-----|
     Ab|----------7-------------------10--|---------7-----------3-----5-----|
     Eb|--0-----0---------------0---------|-0-----0-------------1-----3-----|
                .               .                 .
Gtr.1Eb|----------------------------------|---------------------------------|
Gtr.2Bb|----------------------------------|---------------------------------|
     Gb|--------------------------8-------|-----------------sl--------------|
     Db|------------9---8~~~~~------9-----|-----------9---8-\---3-----5-----|
     Ab|----------7-------------------10--|---------7-----------3-----5-----|
     Eb|--0-----0---------------0---------|-0-----0-------------1-----3-----|
                .               .                 .
           
Gtr.1Eb|----------------------------------|---------------------------------|
Gtr.2Bb|----------------------------------|---------------------------------|
     Gb|--------------------------8-------|-----------------sl--------------|
     Db|------------9---8~~~~~------9-----|-----------9---8-\---3-----5-----|
     Ab|----------7-------------------10--|---------7-----------3-----5-----|
     Eb|--0-----0---------------0---------|-0-----0-------------1-----3-----|
                .               .                 .
        
Gtr.1Eb|----------------------------------|---------------------------------|
Gtr.2Bb|----------------------------------|---------------------------------|
     Gb|--------------------------8-------|-----------------sl--------------|
     Db|------------9---8~~~~~------9-----|-----------9---8-\---3-----5-----|
     Ab|----------7-------------------10--|---------7-----------3-----5-----|
     Eb|--0-----0---------------0---------|-0-----0-------------1-----3-----|
                .               .                 .
SOLO
Solo goes under verse rhythm;
then under RIFF 3A: (*4 times)
Gtr.1Eb|----------------------------------|---------------------------------|
Gtr.2Bb|----------------------------------|---------------------------------|
     Gb|----------------------------------|--------------------sl-----------|
     Db|----------1---------------2-------|---------3-------7-8-\-----------|
     Ab|--2-------1---------------2-------|---------3-------7-8-\-----------|
     Eb|--0---0-0-----0-0-0-0-0-0-----0-0-|-0-0-0-0-----0-0-5-6-\---3-1-0-1-|
              . .     . . . . . .     . .   . . . .     . .         . . . .
repeat RIFF 1
VERSE 3:
          
Gtr.1Eb|----------------------------------|---------------------------------|
Gtr.2Bb|----------------------------------|---------------------------------|
     Gb|----------------------------------|---------------------------------|
     Db|-------------------------0--------|---------------------3-----5-----|
     Ab|----------------1~~~~~-----1------|---------------1~~~--3-----5-----|
     Eb|--0-----0-0-0----------0-----2~~~-|-0-----0-0-0---------1-----3-----|
                . . .          .                  . . .
        
Gtr.1Eb|----------------------------------|---------------------------------|
Gtr.2Bb|----------------------------------|---------------------------------|
     Gb|----------------------------------|---------------------------------|
     Db|-------------------------0--------|---------------------3-----5-----|
     Ab|----------------1~~~~~-----1------|---------------1~~~--3-----5-----|
     Eb|--0-----0-0-0----------0-----2~~~-|-0-----0-0-0---------1-----3-----|
                . . .          .                  . . .
       
Gtr.1Eb|----------------------------------|---------------------------------|
Gtr.2Bb|----------------------------------|---------------------------------|
     Gb|----------------------------------|---------------------------------|
     Db|-------------------------0--------|---------------------3-----5-----|
     Ab|----------------1~~~~~-----1------|---------------1~~~--3-----5-----|
     Eb|--0-----0-0-0----------0-----2~~~-|-0-----0-0-0---------1-----3-----|
                . . .          .                  . . .
       
Gtr.1Eb|----------------------------------|---------------------------------|
Gtr.2Bb|----------------------------------|---------------------------------|
     Gb|----------------------------------|---------------------------------|
     Db|-------------------------0--------|---------------------3-----5-----|
     Ab|----------------1~~~~~-----1------|---------------1~~~--3-----5-----|
     Eb|--0-----0-0-0----------0-----2~~~-|-0-----0-0-0---------1-----3-----|
                . . .          .                  . . .
        
Gtr.1Eb|----------------------------------|---------------------------------|
Gtr.2Bb|----------------------------------|---------------------------------|
     Gb|----------------------------------|--------------------sl-----------|
     Db|----------1---------------2-------|---------3-------7-8-\-----------|
     Ab|--2-------1---------------2-------|---------3-------7-8-\-----------|
     Eb|--0---0-0-----0-0-0-0-0-0-----0-0-|-0-0-0-0-----0-0-5-6-\---3-1-0-1-|
              . .     . . . . . .     . .   . . . .     . .         . . . .
         
Gtr.1Eb|----------------------------------|---------------------------------|
Gtr.2Bb|----------------------------------|---------------------------------|
     Gb|----------------------------------|--------------------sl-----------|
     Db|----------1---------------2-------|---------3-------7-8-\-----------|
     Ab|--2-------1---------------2-------|---------3-------7-8-\-----------|
     Eb|--0---0-0-----0-0-0-0-0-0-----0-0-|-0-0-0-0-----0-0-5-6-\---3-1-0-1-|
              . .     . . . . . .     . .   . . . .     . .         . . . .
        
Gtr.1Eb|----------------------------------|---------------------------------|
Gtr.2Bb|----------------------------------|---------------------------------|
     Gb|----------------------------------|--------------------sl-----------|
     Db|----------1---------------2-------|---------3-------7-8-\-----------|
     Ab|--2-------1---------------2-------|---------3-------7-8-\-----------|
     Eb|--0---0-0-----0-0-0-0-0-0-----0-0-|-0-0-0-0-----0-0-5-6-\---3-1-0-1-|
              . .     . . . . . .     . .   . . . .     . .         . . . .
         
Gtr.1Eb|----------------------------------|---------------------------------|
Gtr.2Bb|----------------------------------|---------------------------------|
     Gb|----------------------------------|--------------------sl-----------|
     Db|----------1---------------2-------|---------3-------7-8-\-----------|
     Ab|--2-------1---------------2-------|---------3-------7-8-\-----------|
     Eb|--0---0-0-----0-0-0-0-0-0-----0-0-|-0-0-0-0-----0-0-5-6-\---3-1-0-1-|
              . .     . . . . . .     . .   . . . .     . .         . . . .
CHORUS (*2 times)
Comments