Slayer - Ddamm Chords & Tabs

 

Ddamm Chords & Tabs

Slayer Chords & Tabs

Version: 3 Type: Bass Tab

Ddamm Bass Tab

Intro
Gb|-------------------------------------|
Db|-------------------------------------|
Ab|-----------------5-5-4-4-4-4-3-3-3-3-|
Eb|--12/2-2-2-2-3-3---------------------|
[ Tab from: http://www.guitartabs.cc/tabs/s/slayer/ddamm_btab_ver_3.html ]
Verse
Gb|----------------------------------|
Db|----------------------------------|
Ab|--------------5-5-4-4-4-4-3-3-3-3-|
Eb|--2-2-2-2-3-3---------------------|

Fast Part
Gb|-----------| Keep on playing it very fast
Db|-----------|
Ab|------3-2--|
Eb|--3-2------|

Thats it!