Slayer - Cult Intro Chords & Tabs

 

Cult Intro Chords & Tabs

Slayer Chords & Tabs

Version: 1 Type: Tab 1 rating
1 star 2 stars 3 stars 4 stars 5 stars
comments

Cult Intro Tab

  Cult Intro

  By Thomas Culleton



6 -0-----0-------0-----0---------
5 ---8-7---7-7-7---8-7---10-10-10
4 -------------------------------
3 -------------------------------
2 -------------------------------
1 -------------------------------
[ Tab from: http://www.guitartabs.cc/tabs/s/slayer/cult_intro_tab.html ]
6 -0-----0-------0-------------
5 ---8-7---7-7-7---8-7---10-9-8
4 -----------------------------
3 -----------------------------
2 -----------------------------
1 -----------------------------

6 -0-----0-------0-----0---------
5 ---8-7---7-7-7---8-7---10-10-10
4 -------------------------------
3 -------------------------------
2 -------------------------------
1 -------------------------------

6 -0-----0-------0---------------
5 ---8-7---7-7-7---8-7---10-11-12
4 -------------------------------
3 -------------------------------
2 -------------------------------
1 -------------------------------

 
Comments