Slayer - Captor Of Sin Chords & Tabs

 

Captor Of Sin Chords & Tabs

Slayer Chords & Tabs

Version: 1 Type: Tab 0 ratings
1 star 2 stars 3 stars 4 stars 5 stars
comments

Captor Of Sin Tab

#----------------------------------PLEASE NOTE---------------------------------#
#This file is the author's own work and represents their interpretation of the #
#song. You may only use this file for private study, scholarship, or research. #
#------------------------------------------------------------------------------#

Tab: Guitar
Tabbed by: Bodan Grodesky
Artist: Slayer
Song: Captor Of Sin


Fig. 1
|-----------------------------------------------------
|-----------------------------------------------------
|-----------------------------------------------------
|--------------------------------------------5--------
|--------------------------------------------5--------
|--2-2-2-5-3-2-2-2-2-3-2-0-2-2-2-5-3-2-2-2-2-3--------
   |_|_| |_|_| |_|_| |_|_| |_|_| |_|_| |_|_| 

|-----------------------------------------------------
|-----------------------------------------------------
|--------------------------------------------5--------
|--------------------------------------------5--------
|--------------------------------------------3--------
|--2-2-2-5-3-2-2-2-2-3-2-0-2-2-2-5-3-2-2-2-2----------
   |_|_| |_|_| |_|_| |_|_| |_|_| |_|_| |_|_|
                                           End Fig. 1

Fig. 2
|--------------------------------------------------
|--------------------------------------------------
|------------------------------3-------------------
|--5>4-------------------------3---5-4-------------
|--5>4-------------------------1---5-4-------------
|--3>2-2-2-2-2-2-2-2-2-2-3-0-0-----3>2-2-2-2-2-2-2-
   |___|_| |_|_|_| |_|_|_| |_|_|__ |___|_| |_|_|_| 
[ Tab from: http://www.guitartabs.cc/tabs/s/slayer/captor_of_sin_tab.html ]
|-----------------
|-----------------
|--------------5--
|--------------5--
|--------------3--
|--2-2-2-3-0-0----
   |_|_|_| |_|_|__
             End Fig. 2

Fig. 3
|------------------------------------------------------
|------------------------------------------------------
|------------------4-------------------3---------------
|------------------4-------------------3---------------
|------------------2-------------------1---------------
|--2h3h5-2h3h5-0-0-----2h3h5-2h3h5-0-0-----2h3h5-2h3h5-
   |_|_| |_|_|         |_|_| |_|_|         |_|_| |_|_|

|-----------------------------
|-----------------------------
|------4-------------------8--
|------4-------------------8--
|------2-------------------6--
|--0-0-----2h3h5-2h3h5-0-0----
           |_|_| |_|_|
                           End Fig. 3

Fig. 4
|----------------------------------
|----------------------------------
|----------------------------------
|------------------2-------4-3-2---
|--2-------4-3-2-----3-2-1-------3-
|----3-2-1-------3-----------------


Fig. 5
|------------------------------------------------------
|------------------------------------------------------
|----------9>8-12>11---------6>5-------------9>8-12>11-
|----------9>8-12>11---------6>5-6>5---------9>8-12>11-
|----------7>6-10>-9---------4>3-6>5---------7>6-10>-9-
|--0-0-0-0-----------0-0-0-0-----4>3-0-0-0-0-----------

|----------------
|----------------
|----------------
|----------9-8-7-
|--7-----7-------
|----8-7---------
               End Fig. 5

Fig. 6
|------------------------------------------------
|------------------------------------------------
|--5-----------------8-----7-----------12-----11-
|--5-----4-----5-----8-----7-----8-----12-----11-
|--3-----4-----5-----6-----5-----8-----10------9-
|--------2-----3-----------------6---------------
Comments