Slayer - Cant Stand You Chords & Tabs

 

Cant Stand You Chords & Tabs

Slayer Chords & Tabs

Version: 1 Type: Tab 0 ratings
1 star 2 stars 3 stars 4 stars 5 stars
comments

Cant Stand You Tab

SLAYER
"Can`t Stand You" (From the album "Undisputed Attitude")
Tabbed by David Lichter (lichter@ebox.tninet.se)

Tune down 1/2 step!

  Can`t stand the way...
Eb|---------------------|
Bb|---------------------|
Gb|---------------------|
Db|---------------------|
Ab|--2---4--5--4--------|
Eb|---------------------|

  
    Do I think you`re dick yeah...
Eb|-------------------------------|
Bb|-------------------------------|
Gb|-------------------------------|
Db|-------------------------------|
Ab|--33333--44444----77777--66666-|
Eb|-------------------------------|


  Can`t stand the way...
Eb|---------------------|
Bb|---------------------|
Gb|---------------------|
Db|---------------------|
Ab|--2---4--5--4--------|
Eb|---------------------|

[ Tab from: http://www.guitartabs.cc/tabs/s/slayer/cant_stand_you_tab.html ]
    Do I think you`re shit yeah...
Eb|----------------||---------------|
Bb|----------------||---------------|
Gb|----------------||---------------|
Db|----------------||---------------|
Ab|--33333--44444--||--77777--66666-|
Eb|----------------||---------------|

  I open my mouth after a while...
Eb|-------------| |------------------|
Bb|-------------| |------------------|
Gb|-------------| |------------------|
Db|-------------| |------------------|
Ab|--7---10--9--| |--7---10--9--7--8-|
Eb|--5---8---7--| |--5---8---7--5--6-|


 Can`t stand the way...
Eb|---------------------|
Bb|---------------------|
Gb|---------------------|
Db|---------------------|
Ab|--2---4--5--4--------|
Eb|---------------------|

  
    Do I think you`re sick yeah...
Eb|-------------------------------|
Bb|-------------------------------|
Gb|-------------------------------|
Db|-------------------------------|
Ab|--33333--44444----77777--66666-|
Eb|-------------------------------|

Any comments, questions mail me: lichter@ebox.tninet.se
Comments