Slayer - Born Of Fire Chords & Tabs

 

Born Of Fire Chords & Tabs

Slayer Chords & Tabs

Version: 2 Type: Bass Tab 0 ratings
1 star 2 stars 3 stars 4 stars 5 stars
comments

Born Of Fire Bass Tab

   
**********************************************************************
This tab file was downloaded from THE ABYSS - the complete Slayer site                      http://www.slaytanic.com/
**********************************************************************


                      Born of Fire - Slayer
                      =====================

Tune down 1/2 step (Eb,Ab,Db,Gb)

 184 bpm
-----|-----------------|-----------------|-----------------|-----------------|
-----|-----------------|-----------------|-----------------|-----------------|
-----|-----------------|-0---------------|-----------------|-0---------------|
-----|-2-------1-------|-----------------|-2-------1-------|-----------------|

|-----------------|-----------------|-----------------|-----------------||
|-----------------|-----------------|-----------------|-----------------||
|-----------------|-0---------------|-----------------|-0---------------||
|-2-------1-------|-----------------|-2-------1-------|-----------------||

 verse 1
|-----------------|-----------------|-----------------|-----------------|
|-----------------|-----------------|-----------------|-----------------|
|-----------------|-----------------|-----------------|---------1-------|
|-3-22222222220-2-|-5-22222222220-2-|-3-22222222220222|-3---0222----0-2-|

|-----------------|-----------------|-----------------|-----------------|
|-----------------|-----------------|-----------------|-----------------|
|-----------------|-----------------|-----------------|---------1-------|
|-3-22222222220-2-|-5-22222222220-2-|-3-22222222220222|-3---0222----0-2-|

|-----------------|-----------------|-----------------|-----------------|
|-----------------|-----------------|-----------------|-----------------|
|-----------------|-----------------|-----------------|---------1-------|
|-3-22222222220-2-|-5-22222222220-2-|-3-22222222220222|-3---0222----0-2-|

                                                      3/4
|-----------------|-----------------|-----------------|-------------||
|-----------------|-----------------|-----------------|-------------||
|-----------------|-----------------|-----------------|---------1---||
|-3-22222222220-2-|-5-22222222220-2-|-3-22222222220222|-3---0222----||

 pre-chorus
4/4
|-----------------|-----------------|-----------------|-----------------|
|-----------------|-----------------|-----------------|-----------------|
|-----------------|-----------------|-----------------|-----------------|
|-3333333333333333|-333333336--6--6-|-2222222222222222|-2222222222222222|
                            {  3  }

|-----------------|-----------------|-----------------|-----------------||
|-----------------|-----------------|-----------------|-----------------||
|-----------------|-----------------|-----------------|-----------------||
|-3333333333333333|-333333336--6--6-|-2222222222222222|-2222222222225320||
                            {  3  }

 chorus
|-----------------|-----------------|-----------------|-----------------|
|-----------------|-----------------|-----------------|-----------------|
|-----------------|-0-------3-------|-----------------|-0-------3-------|
|-2---53201---5320|-----5320----5320|-2---53201---5320|-----5320----5320|

|-----------------|-----------------|-----------------|-----------------||
|-----------------|-----------------|-----------------|-----------------||
|-----------------|-0-------3-------|-----------------|-0-------3-------||
|-2---53201---5320|-----5320----5320|-2---53201---5320|-----5320----0-2-||

 verse 2
|-----------------|-----------------|-----------------|-----------------|
|-----------------|-----------------|-----------------|-----------------|
|-----------------|-----------------|-----------------|---------1-------|
|-3-22222222220-2-|-5-22222222220-2-|-3-22222222220222|-3---0222----0-2-|

|-----------------|-----------------|-----------------|-----------------|
|-----------------|-----------------|-----------------|-----------------|
|-----------------|-----------------|-----------------|---------1-------|
|-3-22222222220-2-|-5-22222222220-2-|-3-22222222220222|-3---0222----0-2-|

|-----------------|-----------------|-----------------|-----------------|
|-----------------|-----------------|-----------------|-----------------|
|-----------------|-----------------|-----------------|---------1-------|
|-3-22222222220-2-|-5-22222222220-2-|-3-22222222220222|-3---0222----0-2-|

                                                      3/4
|-----------------|-----------------|-----------------|-------------||
|-----------------|-----------------|-----------------|-------------||
|-----------------|-----------------|-----------------|---------1---||
|-3-22222222220-2-|-5-22222222220-2-|-3-22222222220222|-3---0222----||

 pre-chorus
4/4
|-----------------|-----------------|-----------------|-----------------|
|-----------------|-----------------|-----------------|-----------------|
|-----------------|-----------------|-----------------|-----------------|
|-3333333333333333|-333333336--6--6-|-2222222222222222|-2222222222222222|
                            {  3  }

|-----------------|-----------------|-----------------|-----------------||
|-----------------|-----------------|-----------------|-----------------||
|-----------------|-----------------|-----------------|-----------------||
|-3333333333333333|-333333336--6--6-|-2222222222222222|-2222222222225320||
                            {  3  }

 chorus
|-----------------|-----------------|-----------------|-----------------|
|-----------------|-----------------|-----------------|-----------------|
|-----------------|-0-------3-------|-----------------|-0-------3-------|
|-2---53201---5320|-----5320----5320|-2---53201---5320|-----5320----5320|

|-----------------|-----------------|-----------------|-----------------||
|-----------------|-----------------|-----------------|-----------------||
|-----------------|-0-------3-------|-----------------|-0-------3-------||
|-2---53201---5320|-----5320----5320|-2---53201---5320|-----5320----0-2-||

 guitar solo I
|-----------------|-----------------|-----------------|-----------------|
|-----------------|-----------------|-----------------|-----------------|
|-----------------|-----------------|-----------------|---------1-------|
|-3-22222222220-2-|-5-22222222220-2-|-3-22222222220222|-3---0222----0-2-|
[ Tab from: http://www.guitartabs.cc/tabs/s/slayer/born_of_fire_btab_ver_2.html ]
                                                      3/4
|-----------------|-----------------|-----------------|-------------||
|-----------------|-----------------|-----------------|-------------||
|-----------------|-----------------|-----------------|---------1---||
|-3-22222222220-2-|-5-22222222220-2-|-3-22222222220222|-3---0222----||

4/4
|-----------------|-----------------|-----------------|-----------------|
|-----------------|-----------------|-----------------|-----------------|
|-----------------|-----------------|-----------------|-----------------|
|-3333333333333333|-333333336--6--6-|-2222222222222222|-2222222222222222|
                            {  3  }

|-----------------|-----------------|-----------------|-----------------||
|-----------------|-----------------|-----------------|-----------------||
|-----------------|-----------------|-----------------|-----------------||
|-3333333333333333|-333333336--6--6-|-2222222222222222|-2222222222225320||
                            {  3  }

|-----------------|-----------------|-----------------|-----------------|
|-----------------|-----------------|-----------------|-----------------|
|-----------------|-0-------3-------|-----------------|-0-------3-------|
|-2---53201---5320|-----5320----5320|-2---53201---5320|-----5320----5320|

|-----------------|-----------------|-----------------|-----------------|
|-----------------|-----------------|-----------------|-----------------|
|-----------------|-0-------3-------|-----------------|-0-------3-------|
|-2---53201---5320|-----5320----5320|-2---53201---5320|-----5320----4-3-|

|-----------------||
|-----------------||
|-----------------||
|-0---------------||

|-----------------|-----------------|-----------------|-----------------|
|-----------------|-----------------|-----------------|-----------------|
|-----------------|-----------------|-----------------|-----------------|
|-0---------------|(0)----------4-3-|-0---------------|-----------------|

|-----------------|-----------------|-----------------|-----------------||
|-----------------|-----------------|-----------------|-----------------||
|-----------------|-----------------|-----------------|-----------------||
|-0-0-0-5-4-0-0-4-|-3-0-0-0-0-0-4-3-|-0-0-0-5-4-0-0-4-|-3-0-0-0-0-0-4-3-||

 bridge
|-----------------|-----------------|-----------------|-----------------|
|-----------------|-----------------|-----------------|-----------------|
|-----------------|-----------------|-----------------|-----------------|
|-0-0-0-0-0-0-0-3-|-2-0-0-2-1-0-4-3-|-0-0-0-0-0-0-0-3-|-2-0-0-2-1-0-4-3-|

|-----------------|-----------------|-----------------|-----------------||
|-----------------|-----------------|-----------------|-----------------||
|-----------------|-----------------|-----------------|-----------------||
|-0-0-0-0-0-0-0-3-|-2-0-0-2-1-0-4-3-|-0-0-0-0-0-0-0-3-|-2-0-0-2-1-0-0-0-||

|-----------------|-----------------|-----------------|-----------------|
|-----------------|-----------------|-----------------|-----------------|
|-----------------|-----------------|-----------------|-----------------|
|-0-0-0-0-0-0-0-0-|-0-0-0-0-0-0-0-0-|-0-0-0-0-0-0-0-0-|-0-0-0-0-0-0-0-0-|

|-----------------|-----------------|-----------------|-----------------||
|-----------------|-----------------|-----------------|-----------------||
|-----------------|-----------------|-----------------|-----------------||
|-0-0-0-0-0-0-0-0-|-0-0-0-0-0-0-0-0-|-0-0-0-0-0-0-0-0-|-0-0-0-0-0-0-4-3-||

 guitar solo II
|-----------------|-----------------|-----------------|-----------------|
|-----------------|-----------------|-----------------|-----------------|
|-----------------|-----------------|-----------------|-----------------|
|-0-0-0-0-0-0-0-3-|-2-0-0-2-1-0-4-3-|-0-0-0-0-0-0-0-3-|-2-0-0-2-1-0-4-3-|

|-----------------|-----------------|-----------------|-----------------||
|-----------------|-----------------|-----------------|-----------------||
|-----------------|-----------------|-----------------|-----------------||
|-0-0-0-0-0-0-0-3-|-2-0-0-2-1-0-4-3-|-0-0-0-0-0-0-0-3-|-2-0-0-2-1-0-0-0-||

|-----------------|-----------------|-----------------|-----------------|
|-----------------|-----------------|-----------------|-----------------|
|-----------------|-----------------|-----------------|-----------------|
|-0-0-0-5-4-0-0-4-|-3-0-0-0-0-0-4-3-|-0-0-0-5-4-0-0-4-|-3-0-0-0-0-0-4-3-|

|-----------------|-----------------|-----------------|-----------------||
|-----------------|-----------------|-----------------|-----------------||
|-----------------|-----------------|-----------------|-----------------||
|-0-0-0-5-4-0-0-4-|-3-0-0-0-0-0-4-3-|-0-0-0-5-4-0-0-4-|-3-0-0-0-0-0-0-0-||

|-----------------|-----------------|-----------------|-----------------|
|-----------------|-----------------|-----------------|-----------------|
|-----------------|-----------------|-----------------|-----------------|
|-0-0-0-0-0-0-0-0-|-0-0-0-0-0-0-0-0-|-0-0-0-0-0-0-0-0-|-0-0-0-0-0-0-0-0-|

|-----------------|-----------------|-----------------|-----------------||
|-----------------|-----------------|-----------------|-----------------||
|-----------------|-----------------|-----------------|-----------------||
|-0-0-0-0-0-0-0-0-|-0-0-0-0-0-0-0-0-|-0-0-0-0-0-0-0-0-|-0-0-0-0-0-0-0-2-||

|-----------------|-----------------|-----------------|-----------------|
|-----------------|-----------------|-----------------|-----------------|
|-----------------|-----------------|-----------------|---------1-------|
|-3-22222222220-2-|-5-22222222220-2-|-3-22222222220222|-3---0222----0-2-|

|-----------------|-----------------|-----------------|-----------------|
|-----------------|-----------------|-----------------|-----------------|
|-----------------|-----------------|-----------------|---------1-------|
|-3-22222222220-2-|-5-22222222220-2-|-3-22222222220222|-3---0222----0-2-|

|-----------------|-----------------|-----------------|-----------------|
|-----------------|-----------------|-----------------|-----------------|
|-----------------|-----------------|-----------------|---------1-------|
|-3-22222222220-2-|-5-22222222220-2-|-3-22222222220222|-3---0222----0-2-|

|-----------------|-----------------|-----------------|-----------------|
|-----------------|-----------------|-----------------|-----------------|
|-----------------|-----------------|-----------------|---------1-------|
|-3-22222222220-2-|-5-22222222220-2-|-3-22222222220222|-3---0222----0-1-|

|-----------------||
|-----------------||
|-----------------||
|-2---------------||

Comments