Slayer - Bloodline Chords & Tabs

 

Bloodline Chords & Tabs

Slayer Chords & Tabs

Version: 8 Type: Tab 0 ratings
1 star 2 stars 3 stars 4 stars 5 stars
comments

Bloodline Tab

   
-------------------------------------------------------------------------------
Slayer- Bloodline		     
-------------------------------------------------------------------------------
by: Jeff Harrison

This is for all the ppl that don't know the riff before the Solo ( if that's what you
wanna call it ) and its not dropped D people!!! So many tabs have this in dropped D
and its not. Its just standard tuning but whole and half step down or whatever you wanna
call it!! 

(* The whole song is here, minus the solo part, but the riff before the solo is first )

Tuning: 1 and half step down 


e|--------------------------------------------------------|
B|--------------------------------------------------------|
G|--------------------------------------------------------|
D|--------------------------------------------------------|  
A|---------5-4-----5-8-7-6-----------5-4-----5-8-7-6------|                 
E|--1--1---3-2--1--3-6-5-4----1--1---3-2--1--3-6-5-4------|            
    *  *   * *  *  * * * *    *  *   * *  *  * * * *                        
e|--------------------------------------------------------|
B|--------------------------------------------------------|
G|--------------------------------------------------------|
D|--------------------------------------------------------|
A|---------5-4-----5-8-7-6-----------5-4-----5-8-7--------|
E|--1--1---3-2--1--3-6-5-4----1--1---3-2--1--3-6-5--------|
    *  *   * *  *  * * * *    *  *   * *  *  *    

e|--------------------------------------------------------|
B|*------------------------------------------------------*|
G|--------------------------------------------------------|
D|--------------------------------------------------------|
A|*--2-2-5\4-2-5/8-7-6----2-2-5\4-2-5/8-7-6--------------*|
E|---0-0-3\2-0-3/6-5-4----0-0-3\2-0-3/6-5-4---------------|
[ Tab from: http://www.guitartabs.cc/tabs/s/slayer/bloodline_tab_ver_8.html ]
e|----------------------------------------------------------------------|
B|----------------------------------------------------------------------|
G|----------------------------------------------------------------------|
D|----------------------------------------------------------------------|
A|-----(2)(2)-----(2)(2)(2)-----(2)(2)-----(2)(2)-----(2)(2)(2)---------|
E|--1-1-0--0---1-1-0--0--0---1-1-0--0---1-1-0--0---1-1-0--0--0---1-1----|
    * * *  *   * * *  *  *   * * *  *   * * *  *   * * *  *  *   * *

( AND THIS IS THE PROPER INTRO AND CHORUS )
e|-------------------------------|--------------------------------------|
B|*-----------------------------*|*------------------------------------*|
G|-------------------------------|--------------------------------------|
D|-------------------------------|--------------------------------------|
A|*-2---2-2---2-1---1-0---0-2---*|*----2---2-2---2-1---2-4-5---3-2-----*|
E|--0---0-3---3-2---2-1---1-0----|-----0---0-3---3-2---0-2-3---1-0------|


e|---------------------------------------------------------------------------|
B|---------------------------------------------------------------------------|
G|---------------------------------------------------------------------------|
D|---------------------------------------------------------------------------|
A|-----(2)(2)-----(2)(2)(2)-----(2)(2)-----(2)(2)-----(2)(2)(2)-----(2)(2)---|
E|--1-1-0--0---1-1-0--0--0---1-1-0--0---1-1-0--0---1-1-0--0--0---1-1-0--0----|
    * * *  *   * * *  *  *   * * *  *   * * *  *   * * *  *  *   * * *  *
Verse's
e|---------------------------------------------------------------------------|
B|*--------------------------------------------------------------------------|
G|---------------------------------------------------------------------------|
D|---------------------------------------------------------------------------|
A|*----(2)(2)-----(2)(2)(2)-----(2)(2)-----(2)(2)-----(2)(2)(2)-----(2)(2)---|
E|--1-1-0--0---1-1-0--0--0---1-1-0--0---1-1-0--0---1-1-0--0--0---1-1-0--0----|
    * * *  *   * * *  *  *   * * *  *   * * *  *   * * *  *  *   * * *  *

e|--------------------------------------------------------------|
B|-------------------------------------------------------------*|
G|--------------------------------------------------------------|
D|--------------------------------------------------------------|
A|-----(2)(2)-----(2)(2)(2)-----(2)(2)-----(2)(2)--0-4-5-4-7---*|
E|--1-1-0--0---1-1-0--0--0---1-1-0--0---1-1-0--0---1-2-3-2-5----|
    * * *  *   * * *  *  *   * * *  *   * * *  *   


| /  slide up
| \  slide down
| h  hammer-on
| p  pull-off
| ~  vibrato
| +  harmonic
| x  Mute note
|( ) can strum this note if you want to, but don't have to
===============================================================================
Comments