Slayer - Bloodline Chords & Tabs

 

Bloodline Chords & Tabs

Slayer Chords & Tabs

Version: 5 Type: Tab 0 ratings
1 star 2 stars 3 stars 4 stars 5 stars
comments

Bloodline Tab

Slayer - Bloodline:

By: Freaker
e-mail: koRn_Rulez1@hotmail.com

this is the intro of bloodline, this is my first tab, 
i might be wrong, but it sounds good to me...
[ Tab from: http://www.guitartabs.cc/tabs/s/slayer/bloodline_tab_ver_5.html ]
1]----------------------
2]----------------------
3]----------------------
4]--2-2--3-3--2-2--1-1--
5]--2-2--3-3--2-2--1-1--
6]-------3-3--2-2--1-1-- 3x

1]--------------------------
2]--------------------------
3]--------------------------
4]--2-2--3-3--2-2--0-1-2-1-0
5]--2-2--3-3--2-2--0-1-2-1-0
6]-------3-3--2-2--0-1-2-1-0 

that's it.. succes with it
Comments