Slayer - Bloodline Chords & Tabs

 

Bloodline Chords & Tabs

Slayer Chords & Tabs

Version: 1 Type: Tab 1 rating
1 star 2 stars 3 stars 4 stars 5 stars
comments

Bloodline Tab

#----------------------------------PLEASE NOTE--------------------------------#
#This file is the author's own work and represents their interpretation of the#
#song. You may only use this file for private study, scholarship, or research.#
#-----------------------------------------------------------------------------#
#-- File created with Instab - http://www.pconline.com/~smcarey/instab.html --#
#-----------------------------------------------------------------------------#

Author/Artist: Slayer
Title: Bloodline
Album: God Hates Us All
Transcribed by: Jason M. Velykis
Email: phantomlord1701@yahoo.com

I hope you don't have trouble reading this.  On a couple of the
bars, I will write TWO GUITARS' worth of tab.  In the intro and
main riff of this song, Slayer uses two guitars playing different 
notes to attain a "dissonant" effect that is pure genius.  But I 
want to show it to you on the same staff so that it will be easier 
to see where the two guitars play the same thing and where they 
differ.  In respects, it will actually be easier.  Tuning for this one 
is half step down, drop D.  The WHOLE song is played on the 
top two strings.  I won't bother tabbing the solo, since it isn't even
a solo!  It's just Kerry King making noise!   

------------------------------------------------------------------------------
-0--0-3--3-2--2-1--1-0--0-3--3-2--2-1--1-0--0-3--3-2--2-1--1-0--0-3--3-2------
-0--0-3--3-2--2-1--1-0--0-3--3-2--2-1--1-0--0-3--3-2--2-1--1-0--0-3--3-2------
------------------------------------------------------------------------------
-----------------------------------------0--0-7--7-6--6-5--5-0--0-7--7-6------
-----------------------------------------0--0-7--7-6--6-5--5-0--0-7--7-6------
 Guitar 1 above, 2 below (remember, top two strings only!)                    

------------------------------------------------------------------------------
-0-2-3--2-0--0-3--3-2--0-2-3--2-0--0-3--3-2--0-2-3--2-0-----------------------
-0-2-3--2-0--0-3--3-2--0-2-3--2-0--0-3--3-2--0-2-3--2-0-----------------------
------------------------------------------------------------------------------
-0-2-3--2-0--0-7--7-6--0-2-3--2-0--0-7--7-6--0-2-3--2-0-----------------------
-0-2-3--2-0--0-7--7-6--0-2-3--2-0--0-7--7-6--0-2-3--2-0-----------------------
 This is where the drums & bass come in!  Also use this for chorus            
[ Tab from: http://www.guitartabs.cc/tabs/s/slayer/bloodline_tab.html ]
------------------------------------------------------------------------------
-1-0000-1-00-1-00-1-0000-1-00-1-00-1-0000-1-00-1-00-1-0000--------------------
-1-0000-1-00-1-00-1-0000-1-00-1-00-1-0000-1-00-1-00-1-0000--------------------
------------------------------------------------------------------------------
-----------------------------------1-0000-1-00-1-00-1-0000--------------------
-----------------------------------1-0000-1-00-1-00-1-0000--------------------
 This is actually trickier than it looks.  Played over the verses.            

------------------------------------------------------------------------------
-0-3-2-3-5-1-0000-1-00-1-00-1-0000--------------------------------------------
-0-3-2-3-5-1-0000-1-00-1-00-1-0000--------------------------------------------
------------------------------------------------------------------------------
-0-3-2-3-5-1-0000-1-00-1-00-1-0000--------------------------------------------
-0-3-2-3-5-1-0000-1-00-1-00-1-0000--------------------------------------------
 This is the fill in the verses between lines.                                

------------------------------------------------------------------------------
-1-0-3-2-1-0-3-2-5-1-0-3-2-1-0-3-2-7-1-0-3-2-1-0-3-5--------------------------
-1-0-3-2-1-0-3-2-5-1-0-3-2-1-0-3-2-7-1-0-3-2-1-0-3-5--------------------------
------------------------------------------------------------------------------
------------------------------------------------------------------------------
------------------------------------------------------------------------------
 Guitar one plays this in that break before crazy part.                       

------------------------------------------------------------------------------
-1-0-3-2-1-0-3-2-5--1-0-3-2-1-0-3-2-5--1-0-3-2-1-0-3-2-5----------------------
-1-0-3-2-1-0-3-2-5--1-0-3-2-1-0-3-2-5--1-0-3-2-1-0-3-2-5----------------------
------------------------------------------------------------------------------
------------------------------------------------------------------------------
------------------------------------------------------------------------------
 Crazy, fast part. Guitar 2 plays same thing                                  

------------------------------------------------------------------------------
-0-0--3--0-0--5-5--0-0--3--0-0--5-7-------------------------------------------
-0-0--3--0-0--5-5--0-0--3--0-0--5-7-------------------------------------------
------------------------------------------------------------------------------
------------------------------------------------------------------------------
------------------------------------------------------------------------------
 Can't quite hear what Hanneman plays during solo; I do this.                 

------------------------------------------------------------------------------
------------------------------------------------------------------------------
------------------------------------------------------------------------------
------------------------------------------------------------------------------
-2-2-2-2-3-2-2-3-2-2-3-2-2-2-2-3-2-2-2----------------------------------------
-2-2-2-2-3-2-2-3-2-2-3-2-2-2-2-3-2-2-2----------------------------------------
 Post solo "Drink the flesh of life itself..."                                

Comments