Slayer - Black Magic Chords & Tabs

 

Black Magic Chords & Tabs

Slayer Chords & Tabs

Version: 5 Type: Tab 0 ratings
1 star 2 stars 3 stars 4 stars 5 stars
comments

Black Magic Tab

Slayer
Black Magic
(from what I remember)

-------------------------------------------------|
-------------------------------------------------|
-------------------------------------------------|
-------------------------------------------------|
7---------7h8----------7h8-10-8------8p7---------|
--0-0-0-0-----0-0-0-0------------10--------------|

[ Tab from: http://www.guitartabs.cc/tabs/s/slayer/black_magic_tab_ver_5.html ]
-------------------------------------------------|
-------------------------------------------------|
-------------------------------------------------|
9--9/10--9--5/7----------------------------------|
7--7/8---7--3/5----------------------------------|
-------------------------------------------------|


-------------------------------------------------|
-------------------------------------------------|
-------------------------------------------------|
9--------------9-9-10--------------12--11--10--9-|
7--------------7-7-8---------------10---9---8--7-|
--0-0-0-0-0-0---------0-0-0-0-0-0----------------|


-------------------------------------------------|
-------------------------------------------------|
-------------------------------------------------|
9--------------9-9-10----------------------------|
7--------------7-7-8----------------5-4-3-2------|
--0-0-0-0-0-0---------0-0-0-0-0-0---3-2-1-0------|
Comments