Slayer - Black Magic Chords & Tabs

 

Black Magic Chords & Tabs

Slayer Chords & Tabs

Version: 2 Type: Tab 0 ratings
1 star 2 stars 3 stars 4 stars 5 stars
comments

Black Magic Tab

   
                      //                      //\\
                     //     //\\  \\  // //  // //    
                     \\ \\ //__\\  \\// //    \\/\\        
                      \\ \\/    \\  //  \\//   \\ \\         
                      //  \\//   \\//    \\ //  \\ \\       
                     //    \/     //      \//    \\        
                    //  B L A C K  M A G I C

From 'Show No Mercy' (1983)
Intro
---------------------------------------------------------
---------------------------------------------------------
---------------------------------------------------------
---------------------------------------------------------
---------------------------------------------------------
000000000000000000000000000000000000000000000000000000000
(with volume increasment, starting from zero up to normal)

--------------------------------------
--------------------------------------
--------------------------------------
--------------------------------------
-----7*------7h8------7h8-10-8--5-8-7-
-000-----000------000-----------------

----------------------------
----------------------------
----------------------------
---9-----9-10----9----5-7---
---7-----7-8-----7----3-5---
000---000-----000--000------

Verse
-------------------------------|----------|--------
-------------------------------|----------|--------
-------------------------------|----------|--------
-------------------------------|----------|--------
-9--------9---9---10-9---------|-12-11-10-|--------
-7--------7---7---8--7---------|-10-9--8--|-5-4-3--
---000000---0---0------000000--|----------|-3-2-1--
"cursed, black magic night, we've been struck down"
[ Tab from: http://www.guitartabs.cc/tabs/s/slayer/black_magic_tab_ver_2.html ]
------------------------------------
------------------------------------
------------------------------------
-2-------4--------------------------
-0000000022222222-4-------5---------
------------------2222222233333333--
 "spell sorround me day and night"

Chorus
-----------------------
-----------------------
----------7----6---4---
----------7----6---4---
-00000000---00---0-----
-----------------------
"Fighting the curse, break it I must"

Solo 1
-------------------------
-------------------------
-------------------------
-4------3----------------
-2------1------2------3--
---------------0------1--

Bridge
-----------------|------|---------
-----------------|------|---------
-----------------|------|---------
-9---9---9---9---|-9--10|-9/10-10-
-7---7---7---7---|-7--8-|-7/8--8--
---0---0---0---0-|------|---------

Solo 2
-------------------------------|----------|--------
-------------------------------|----------|--------
-------------------------------|----------|--------
-------------------------------|----------|--------
-9--------9---9---10-9---------|-12-11-10-|--------
-7--------7---7---8--7---------|-10-9--8--|-5-4-3--
---000000---0---0------000000--|----------|-3-2-1--

-------------------------
-------------------------
-------------------------
-4------3----------------
-2------1------2------3--
---------------0------1--

Outro
---------------------------------------------------
---------------------------------------------------
------------------------------------------------4--
-9-9-9-9-9-9-9-9--9--10--9--/12-----------------2--
-7-7-7-7-7-7-7-7--7--8---7--/10-----------------2--
------------------------------------------------0--


/metal_up_your_ass@2die4.com


Comments