Slayer - Bitter Peace Chords & Tabs

 

Bitter Peace Chords & Tabs

Slayer Chords & Tabs

Version: 2 Type: Tab 0 ratings
1 star 2 stars 3 stars 4 stars 5 stars
comments

Bitter Peace Tab

   
bitter peace (solo)
album: diabolus in musica
slayer

tabbed by: Rudy Guzman

1/2 step down

eb
Bb
Gb
Db
Ab
eb

solo 1
:------------------------------10-11-13-10---------------------------------|
:/10~~~---10-11-10-11-13p11p10-------------13-10-11-13-11-9-8-9-8-9-11-9-8-|
:--------------------------------------------------------------------------|
:--------------------------------------------------------------------------|
:--------------------------------------------------------------------------|
:--------------------------------------------------------------------------|

:--------14-14-15-12-15----15----|-15-14-15-12-15----15-----|
:-----------------------15----14-|----------------15----14--|
:-12b~~--------------------------|--------------------------|
:--------------------------------|--------------------------|
:--------------------------------|--------------------------|
:--------------------------------|--------------------------|


:-15-13-12---------------------------------------8-7----------|
:----------13-12---12-9-10-12-10-9------------9------8--9AH---|
:-----------------------------------12b----10-----------------|
:-------------------------------------------------------------|
:-------------------------------------------------------------|
:-------------------------------------------------------------|


[ Tab from: http://www.guitartabs.cc/tabs/s/slayer/bitter_peace_tab_ver_2.html ]
solo 2
   repeat 3 times           repeat 3 times
:-22-22-22-22p20p19-|------|-22-22-22-22p20p19-|
:-------------------|-21b--|-------------------|
:-------------------|------|-------------------|
:-------------------|------|-------------------|
:-------------------|------|-------------------|
:-------------------|------|-------------------|


                       repeat 3 times
:---------------------|--------------------|
:-21b--20b------------|-21-21-21-21p19p18--|
:------------20b~~~---|--------------------|
:---------------------|--------------------|
:---------------------|--------------------|
:---------------------|--------------------|



:-------------------------------------------------|
:--------------21-19-18---------------------------|
:-20b--20~~~-------------21-19-18-----------------|
:----------------------------------21-19-18-------|
:--------------------------------------------19\--|
:-------------------------------------------------|



:---------------------------------------------------------------------12-13-15-17\|
:------------------------------------------------------12-13-12-13-15-------------|
:---------------------------------------12-13-12-13-15----------------------------|
:------------------------12-13-12-13-15-------------------------------------------|
:---------12-13-12-13-15----------------------------------------------------------|
:12-13-15-------------------------------------------------------------------------|
Comments